Аккорды к песням для гитары

«5nizza» аккорды

Играется такая вещь:
|-x---4-3-2-1-|
|-x---4-3-2-1-|
|-x---5-4-3-2-|
|-3---6-5-4-3-|
|-3---------3-|
|-1-----------|
Хими-химикаты, химики, не хиппи мы
Вступление:
Gm7 B7 Am6 | Am6 D7 > 4 раза
Gm7 B7 Am6 D7
En automne le passé semble doux et proche au sein
On arrive ceux qui sont jamais et ceux qui
Seront jamais ma peine. On s’est assis, bavardait, pleurait
Le ciel cachait un peu de taches bleues entre les nuages. Ca arrive en automne.
Quelquefois on se casse du passe et l’on est follement egare,
 
 
Gm Cm7
And she says she needs more than a friend
That's all I ever been yo
Well one day you gonna overstand
Yo badu badee badu badee-dee
Dm Cm7
And I remember the first time that we met yo
How could I forget yo
 
 
D#5 F#5 F5 A#5 F#5
D#5
Один за одним дни
F#5 F5
В этом мире мы не одни
A#5 F#5 D#5
Но каждый в своем один на один Yo!
Это не твое не мое не ее не вые...
 
Hm E
We?re jamming, jamming
G(III) F#
I wanna jam it with you,
Hm E
We?re jamming, jamming
G(III) F#
and I hope you like jamming too.
 
 
Hm E7
We?re jamming jamming
G F#m7
I wanna jam it with you,
Hm E7
We?re jamming jamming
G F#m7
and I hope you like jamming too.
 
 
Перебор такой:
Hm 5321323
E 6321323
G(III) 6321323
F# 63263212
Hm E
We're jamming, jamming
G(III) F#
 
(I) (II) (III) (IV)
1|--*-*-*------2-2-2---------------------------6--|
2|--1-1-1------1-1-1------3-3-3------8-8-8-----8--|
3|--0-0-0~~----2-2-2~~----3-3-3~~----7-7-7~~---7--|
4|--1-1-1~~----0-0-0~~----3-3-3~~----8-8-8~~---8--|
5|--0-0-0~~----0-0-0~~----5-5-5~~----6-6-6~~---6--|
6|--*-*-*------*-*-*------3-3-3------*-*-*--------|
В конце (т.е. в конце IV аккорда)обратите внимание на удар по 6 ладу на первой струне
 
(Cm) (D) (Gm) (D#)
1---------------------------------6---|
2----7----------------------------8---|
3|--5-5-5~~-5--7-7-7~~----3-3-3~~-3--7-7-7~~---7--|
4|--5-5-5~~-5--7-7-7~~-5--0-0-0~~-0--5-5-5~~------|
5|--0-0-0~~-0--5-5-5~~-5--1-1-1~~-1--6-6-6~~-6----|
6-------------------------------------|
(Cm) Улица длится, длится, не спится,
 
intro: em - f7 - h7(2) { и поехали }
ля - ля ля - ля ля-ля-ля-ля-ля-ля-ля {4x}
em
1) ммм скоолько не живете всее равно помрете
f7 h7(2)
раазве ж не поняятно ведь не вечно править { и т д }
леестно шепчут крысы лиижут попы писы
фуу какая мерзость пре данность и верность
 
 
F#(II)
Вот горшок пустой
B(II)
Он предмет простой
G#(IV)
Он никуда, никуда, никуда
C#(IV)
Не денется
 
 
Вся песня играется таким ходом:
---6---6--| -------5---5--|
---6---6--| -------5---5--|
---6---6--| 2р.-------5---5--| 2р.
----------| --------------|
-6--------| -----5--------|
-----6----| ---------5----|
---4---4--| -------3---3--|
Вступление:
Em6/9 | Em6/9 | F#7sus4 | F#7 > 2 раза
Em6/9 F#7sus4 F#7
Смотри: мимо него невозможно пройти,
Em6/9 F#7sus4 F#7
Кого и от кого спрятать или найти, себя сначала.
Иди один или нам обоим пора.
Напомни им, завтра будет новым вчера, и все сначала.
 
 
Dm C G F > 2 раза
Dm C
Эй, где ты? Я дам тебе немного света.
G F
Ведь боли довольно. Не бойся - это не будет больно
Эй, кто ты? Я не беру твою работу,
Просто иногда мы делаем это для кого-то.
Мы имеем. Нас имеет то, что имеем мы.
 
 
C Em F C
Союз нерушимый республик свободных
Dm Dm Dm G
Сплотила навеки великая Русь.(О-о)
C G Am Em
Да здравствует созданный волей народов
F C D G
Единый, могучий Советский Союз. (О-ее)
 
Intro:
E---------------------------------
H------------2------------3---------
G---------------------------------
D-------4-------------5-------------
A---------------------------------
E---2------------3------------------
Fm# Gm
 
G G/B G/E
Забери меня к себе
G/C G/D G/E
Я так устал бежать
За тобою вслед
Открой глаза, закрой лицо руками
Свет, я хочу увидеть свет
Между нами
 
D Dm
След оставил самолет
D
Под ногами тает лед
Dm
Те, кто в нем - уже не с нами
D Dm
Подвесные города
 
F#
Кому-то легче жить с закрытыми глазами
A
Это их выбор, а мы свой делаем сами
H7
Остальные стальные рыбы гнилые головы
F#
Не ловят ветер, ответим или ты один в интернете
 
 
C7-5/E C7-5/Hb C7-5/G C7-5
E|-------------------------------------------|
B|------0----------0---------0----------0----|
G|------3----------3---------3----------3----|
D|-----2-2--------2-2-------2-2--------2-2---|
A|----------1----------------------3---------|
E|-0--------------------3--------------------|
Подключен к аппаратуре
 
Вступление: Em7 Dm7 Cm7 | Am7 > 2 раза
Em7 Dm7 Cm7 Am7
Луна, луна, луна, успокой меня, мне нужен твой свет.
Луна, луна, луна, луна...
Напои меня, чем хочешь, но напои. Я забытый связной в доме
Чужой любви. Я потерял связь с миром, которого нет.
Я иду по льду последней реки, оба берега одинаково далеки.
Я не помню, как петь; у меня не осталось слов.
 
 
Bm F# F
Пр: Ля-Ля-Ля
Bm
Развяжите руки, суки
F# F
все было бы уоки-токи, чики-пуки да жаль, у меня нет базуки
Bm
Как Е2 на Е4 а так же пятница
 
 
C9
Я варвар
Вар вар вар вар ворвался в этот мир
D9
Как Перл Харбор взорвался
Попал в прямой эфир
C9
С бодрым утром, миру - мир.
 
Вступление (акустика):
D|------------------------------|
A|-0-5---5-5-5---5-8---8-8-8----|
E|------------------------------|
Вступление (distortion):
D|-0-7-7-7-7---10---10---10---10-----9---5--0--|
A|-0-5-5-5-5---8----8----8----8------7---3--0--|
E|---------------------------------------------|
 
Em
Прикрыл, закрыл и распустил
C
Запутанные волосы
G
Пришел, увидел, победил
H7
Провел на небе полосы
 
Gm
Я не помню, как я родился на свет
Cm Gm
Был он белым, *ля, или зеленым - это неважно
Gm
Я не помню, сколько мне лет
Cm Gm
Фотографии нету на паспорт, где мой первый год
 
 
F7 B
Дожидаюсь тебя ласково,
G7 C
Безутешно и безнаказанно.
А вокруг летают ангелы
Так незбыточно, ненастойчиво.
И писать тебе не хочется,
Изводить тебя на неискренность.
 
 
Am Am7+ Am7 Am6 F F7+ Dm Dm7
Выла высота летать так не много
Сила не в руках а мало миллионам и нам ветер дышит
В спину холодам отдам невозможно
Думать об одном и том же ближе ближе ближе
Am7 F7+ C F7+
Это не твоя вина
Это не моя вина
 
 
Am F Hm E
Нас то пиздили, то нас топили
Кругом обступили ногой наступили на нас
Пили тупили кутили мутили
Жили кружили как в первый раз
В начале качали потом отвечали
Но что-то другое не то что в начале
Делали дело летели недели
 
Вокальное интро:
Bm Gb C F
e|--------2-1-----2-1--------------------------|
H|-------------2-------2-1---------------------|
G|--------------------------3------------------|
D|---------------------------------------------|
A|------1-1-----------------3-3----------------|
E|----------------2-2-----------------1-1------|
 
D#m7-5 D+7 G# C#m
Спроси Неву, ты знаешь, я давно живу
Уйти, куда? - туда где время не вода.
С собой возьми, и я возьму с собой тебя.
Мне объясни, что слишком мало декабря... нам
Смотри в меня, сотри себя и будь во мне.
В последний раз твоя вода в моем окне.
Снега немы, немыслимые эти сны
 
Гитарная партия на протяжении всей песни:
Am C F Em
E||-----0---------------------|-----1-------------------||
H||--------1----------1h3p-0--|-----1-------------------||
G||-----------------0---------|-----------------0-------||
D||--------------2------------|--------3-----2----------||
A||--0--------3---------------|--------------------2\---||
E||---------------------------|--1--------0-------------||
Вступление: Cm6 | Cm6 | Ab | G G7 G+
Cm6
Тепло, не пло-
Ab
Хохотать,
G G7 G+
Падать, пыль глотать, перезаряжать.
Стекло, как назло
 
 
A[577600]
стали листами белыми вместе мы мыслями
сколько раз но по-разному каждый видит мир около окон
A/G#[4776xx] G[355400]
свет находит темноту
где-то мосты а стороны стали местами поровну
давят на небо головы, стены ломают, а руки
собирают пустоту
 
Вступление: Gbm | Gbm | Dbm | Dbm | G | G | Gbm | Gbm.
Gbm
Вау! Ваоу Ва-ва-ва-ва-ва-ва-
Dbm
Вау! Ваоу Ва-ва-ва-ва-ва-ва-
G
Вау! Ваоу Вау...вау...вау...
Gbm
 
Gm
Оттуда туда
D
Прямо на меня
Gm D
Правила меняют нас на самолеты
Ты
А ты на повороте
 
 
Dm Gm Dm Gm
Холода, не огонь не вода,
Dm Gm Dm Gm
Никуда солнце по кругу идет.
B Dm
Половина меня допоет, допоет,
B
Половина меня...
 
Hm | Hm | G | F#
Ля-ля-ля...
Hm G F#
Развяжите руки, суки, все было бы оки-доки, чики-пуки, да жаль, у меня нет базуки
Как e2 на e4, так мы "Пятница", двести двадцать.. хип-поц! И будем улыбаться
Молодца! Я не люблю романсы, танцы, шманцы, реверансы
Джанкой: шишки-шишки, да без передышки, отдышки, модные кишки.
Ля-ля-ля...
 
F G Am
F G Am
F G
Соленые брызги взрывают дред-локи
Am
И солнце наносит свой темный татуаж
F G
По жилам несутся речные потоки
 
 
Gm7~g#m7 Cm7 Gm7 C#m7~dm7 Fm(VIII)
gm7~~~~~g#m7
Не прогревает землю слонце
cm7 gm7
Выпускаю дыма кольца
c#m7~dm
Не считаю сколько их
fm7
Fm A#m G# C# Fm
Load up on guns, bring your friends
It´s fun to lose and to pretend
She´s over bored and self assured
Oh no, I know a dirty word
Hello, hello, hello, how low?
Hello, hello, hello, how low?
Hello, hello, hello, how low?
 
 
В том варианте песни, что у меня есть - довольно точно.
Бой обычный для регги, приветствуются вариации (на примере Fm):
------1--1---------x1--1--
------1--1---------x1--1--
------1--1---------x1--1--
------3--3---------x3--3--
------3--3---------x3--3--
--1~--1--1---x1~---x1--1--
Солнце
Песня пока не издавалась.
Игралась на концертах
совместно с Lюками.
мое большое солнце
улыбается
Dm7
а я son of the sun
 
Всю песню играется рифф:
1:-----------------------------------
2:---5---------5---------5---------5-
3:---5---------5---------5---------5-
4:---4---------4---------4---------4-
5:-----------------------------------
6:-5---0--0--5---0--0--5---0--0--5---
Я смотрю один и тот же сон
Am E E Am
Я смотрю один и тот же сон
Такого не видел и Люк Бессон
Если бы закрыл глаза.
Небо как помятая фольга
Ярко-красные снега
Все цвета здесь только за.
На месте солнца пятиконечная звезда
 
 
Вступление (2 раза):
Dm Dm7/C
e|-----------1--------1-----|--------------------|
H|--------3-----------------|--------------------|
G|-----2-----------2-----2--|--------------------|
D|--0-----------------------|--------------------|
A|--------------------------|--3-----3-----3-3---|
E|--------------------------|--------------------|
Hm F#m С#m G#m
Такая-то как я не знаю, но чувствую - юная
И снова от слова до слова game over ломаю я
Мы ямами были, не рыли, не падали, вымерли
И кто-то, играя у края, укроет нас крыльями
И пропадая, падаем до дна
И мне хватает да и мне видна
Не поднимая голову живу
 
 
Hm F#m Dm Am
Такая-то как я не знаю, но чувствую - юная
И снова от слова до слова game over ломаю я
Мы ямами были, не рыли, не падали, вымерли
И кто-то, играя у края, укроет нас крыльями
И пропадая, падаем до дна
И мне хватает да и мне видна
Не поднимая голову живу
 
 
Вступление (бас):
G|-----------------|-----------------|
D|-----------------|-----------------| \
A|-----------------|-3---3-------3\2-| / 4 раза
E|-3---3-----------|-----------------|
G C
Я не кидал никого никогда
Я говорил только "Да!", иногда
Gb7+ Db7+
Мой мир распадается на части ни денег
Cm7 Bm7
Ни власти ни славы ни отравы правы травы
Вы откройте двери я свежий ветер на своей
Планете я один сын где же мое солнце
Мы не снимся горю один говорю один иду
Один куда я а-а-а
 
 
Куплет:
Рифф1:
Dm6 E7 Am7 D Dsus4 D
Dm6 E7
Рифф2:
Am7 D Dsus4 D Dm6 E7 (2 раза)
--------------------------------------------------------------------------------
Вступление = рифф1
 
Вступление: Gm Gb F B > 2 раза
Gm Gb F B
Я не забуду вуду буду, верить чуду, буду быть, буду бить правой, буду правде оправой,
Правила лавировали, мы ловили вилами их, и рога рубили мы, и будем рубить и те,
И эти, а что мы будем делать с этим? Будем мыть! Ты ответь - бля буду, разве мы не дети,
Что бы не думали, мы бы забыли бы все, куда-то меня несет! Хуже уже было - будет еще!
Gm
 
C
Слава
C/G
Безумная орава, крики "Браво!"
C C/G
Все время мало голо-голова идет кругом
A#
Каждый хочет быть твоим другом
 
Intro: GA G CD D
A
Эй где ты?
G
Я дам тебе немного света
D
Ведь боли довольно
C
A C#m
Попади в меня, за руку води меня,
F#m D7 C#m7
От тебя никуда не убегу, я уже не могу.
Подними меня, сердцем обними меня,
Времени нет, время не тут, как нас зовут?
Почему мы высоко, как скала? Ты откуда-то искала, звала,
Ласкала. Ласковая тоска,
 
 
G Hm C D G Hm C D
Я тобi зiграю на валторнi, або, може, трубi, Є-є-є,
Сонце вийде за хмари, та й по покрiвлi загуркотять дощi, Є-є-є.
G Hm C D
Чому? Бо я не той, хто тобi потрiбен, я не той, я не то-о-ой!
Я не той хто тобi потрiбен, я не той, хто потрiбен
Насправдi, є-є-є,
Хто потрiбен насправдi, є-є-є.
 
 
Аmаj7 H C Am7 и т.д.
иди ко мне и холодно и смешно мне
как будто снег на дне и нет его вода ли слезы ли
не все равно ли все нули равны нулю нам сказали минуту назад
что завтра не будет мы больные люди мы любили мы любим мы будем
но об этом ни слова ни злого не повезло вам
я не верю словам
Сmаj7
 
A G
Иди ко мне
C A
И холодно и смешно мне
A G
Как будто снег
C A
На дне, и нет его
 
 
Вступление: Fm | Bbm7 | Fm | C7 } 2 раза
Fm
Я - солдат, я не спал пять лет,
Bbm7 Fm
И у меня под глазами мешки,
C7
Я сам не видел, но мне так сказали.
Fm Bbm7
 
Dmaj7
Ты сказала мне
Бай бом-бейби бай бай
C#maj7
Быстро-быстро-быстро-быстро
засыпай, не перебирай
Cmaj7
Не переиграй
 
Gm
Я не помню, как я родился на свет
Cm Gm
Был он белым, бля, или зеленым - это неважно
Gm
Я не помню, сколько мне лет
Cm Gm
Фотографии нету на паспорт, где мой первый год
 
5'nizza акустический музыкальный дуэт из Харькова, Украины, состоящий из Сергея Бабкина (гитара) и Андрея Запорожца (вокал). Их музыка представляет собой сочетание соул, хип-хоп и регги. В основном исполняется на акустической гитаре. 5'NIZZA образована в 2000 году, выпустила два официальных альбома и распалась в 2007 году. Оба участника приступили к сольной карьере.