Аккорды к песням для гитары
Транспонировать аккорды:   понизить тональность   повысить тональность

Аккорды песни «Я люблю тебя»

 D#    Cm        G#          Gm
Мы с тобой познакомились вчера
D#     Cm         G#          Gm
И так вышло, что любим друг друга
D#   Cm  G#      Gm
Я скажу  эти слова
          D#        Cm  G#       Gm
Только тогда, когда ты  их мне скажешь
 
G#5   B5
Припев:
Я люблю тебя,
G#5   B5
Я люблю тебя
G#5   B5
Я люблю тебя
       C5
И не брошу никогда, да,
Я люблю тебя
Я люблю тебя
Я люблю тебя
И не брошу никогда

Мы с тобой пили водку и сок
Казалось, любовь без конца и без края
А утром ты ушел на восток
И больше я тебя не встречала

Припев

Завтра я встречу другого
И мы с ним тоже полюбим друг друга
И хорошо б что было много таких,
Которым я была бы подругой

Припев

Coляк:		[e-----------------------------------------------------------
B-----------------------------------------------------------
G-4-4-0-------------------------7~4-------------------------
D-------10-10-10~7-7--7-7-7-7------------------------------  } 3 paзa
A-----------------------------------------------------------
E-----------------------------------------------------------

e-----------------------------------------------------------
B-----------------------------------------------------------
G-4-4-0----------------7-7--7-7-7~4-------------------------
D--------10-10-10~7-7---------------------------------------
A-----------------------------------------------------------
E-----------------------------------------------------------] 

Используемые аккорды