Аккорды к песням для гитары

«Александр Дольский» аккорды

Вступление: D7sus4 - D7 - D7sus4 - D7 - Em9 - Em - Em9 - Em
D7sus4 - D7 - D7sus4 - D7 - H7
Em Em/g Am Am/c H7 Em Em/g
Наше время изумляет, разрывает нас на части.
Em Em/g Am Am/c D G
Мы гордимся этим веком, наша жизнь полна чудес,
E Am Am/c D G
Но на душу населенья чести мужества и счастья
 
 
Вступление: Em - flag12 - Em9 - flag7 - Em - flag5
Em Em9 Am Am/c H7
Аленушка, Аленушка, Алена сероглазая.
Em Em9 Am Am/c H7
Ты сказку мне, Аленушка, рассказывай, рассказывай
E7 Am Am/c D G
Одним движением ресниц расскажет мне Алена
Am Am/c Em Am Am/c Em9
 
 
Am E7
Малиновки пели и синие ели кружились, летели в глаза.
Am
Но вот уж метели, а вы не сумели, да что там, не смели сказать.
Dm G7 С
Говорите, говорите, я молчу.
Dm G7 C7+ A7
О полотнах, и о моде, о вещах и погоде,
 
 
Em Am
Не люблю я величавых гор,
H7 Em
Горы у людей воруют небо.
E Am
Я люблю свободу и простор
D7 G
И поля, беременные хлебом.
 
 
Hm F#7
Все идешь и идешь. И сжигаешь мосты.
Em A7 D
Правда где, а где ложь? Слава где а где стыд?
Em A7 D G
А Россия лежит в пыльных шрамах дорог.
Em H7 Hm
А Россия дрожит от копыт и сапог.
 
 
Em Am H7 Em
Летний вечер от пригорка малахитом стелит тень.
Em Am D7 G
Земляникой сладко-горькой на губах растаял день.
Am D7 G Em
Я живу в росе колени, удивляясь каждый раз,
Am Em F#7 H7 Em
Чудесам и откровеньям в государстве синих глаз.
 
 
Вступление:
V VII VIII
1---7-5-3---3-2-0---8-7-5-------5-|---10-8-7-------------12-10-8-----------|
2---------------------------7-8---|------------8-7-8---------------10-8-10-|
3---------------------------------|----------------------------------------|
4---------------------------------|----------------------------------------|
5---------3---------------5-------|----------7-------------------9---------|
6-0------
 
Hm(II) Em(VII)
Мы встретились в таком просторе,
Hm(VII)Em(VII) A(V) D+7(V)
В таком безмолвии небес,
G C7
Что было чудом из чудес
F# Hm(II)
Пересеченье траекторий.
 
 
Em - G - H7/F# - H7
Em Am
Мне звезда упала на ладошку,
H7 Em H7
Я ее спросил: "Откуда ты?"
Em Am Am/C
"Дайте мне передохнуть немножко:
D G
 
 
Часть 1
Em Am H7 Em
1)|------0-----0--|------0-----0--|------2-----2--|------0-----0--|
2)|----0---0-----0|----1---1-----1|----0---0-----0|----0---0-----0|
3)|--0-------0----|--2-------2----|--2-------2----|--0-------0----|
4)|---------------|---------------|---------------|---------------|
5)|---------------|0--------------|2--------------|---------------|
6)|0--------------|---------------|---------------|0-----------
 
Вступление:
C C*
1-----3-----3------|-----2-----2-------
2---------5------5-|---------5------5--
3-5-----5-----5----|-4-----4-----4----- x2
4---5--------------|---5---------------
5------------------|-------------------
6------------------|-------------------
 
Dm - Dm - Dm+7 - Dm7 - Dm6 (потом басы A - H - C# - D)
Dm B
Был поздний вечер, дождь и вдруг
C
Я слышу в двери легкий стук,
F
В такое время уж пусты дороги...
Gm
 
Вступление: Am/+9 - Am9 Am Dsus4 - D7
G7 - G9 G C7sus4 - C7
Am - Am7 Am6 (V) Hsus4 - H7
Em9 Am Am/c H7
Как в сумерки красив весенний синий снег,
Em9 D7(2) G
Стальные облака краснеют по краям.
Am D7(2) G C7
 
 
Музыка: А. Дольский
Слова: А. Дольского в переводе стихов Р. Бернса
C F C
В красавицу Мэри всем сердцем влюблен
D7 G
К отцу с этой вестью направился Джон:
C C7 F Fm
"Отец раздели мою радость со мной --
 
 
Bm F#
Есть порой у нас забота -
F Bm
Отводить навет и ложь.
Bm F#
Если стоишь ты чего-то,
F Bm
Без врагов не проживешь.
 
 
G#m C#m
Холодный взгляд любовь таит
D# G#m
И красота гнетет и дразнит.
G#m C#m
Прекрасны волосы твои,
F# H
Но одиночество - прекрасней.
 
 
Вступление:
Gm9 Gm Am7-6 Am7
1-----4--------6--------5--3-------------|
2---56--56---56--56------3--3--6---5-----|
3-----------------------3-3--3-5-5--5----|
4-0--------0-------------------5--5--5---|
5-----------------------5------7---------|
6-----------------------3------5---------|
 
Вступление:
Dm7 Dm6 Dm Dm6 C(VIII)
1-8-----7-----5-----7------|---------------------------------|
2-6-6-----6-----6-------6--|-13------12------10------12------|
3-5---5-----5-----5---5----|-------9-------9-------9-------9-|
4-7------------------------|----10------10------10------10---|
5-5------------------------|-10------10------10------10------|
6--------------------------|---------------------------------|
 
Вступление:
Am - Hm/g# - Am - F - Em7 - C - E7
Em
Вошел он в комнату ко мне
Am
И сел к роялю
D/f#
И с гор потоками камней
 
 
Проигрыш: Am Asus2 Am Asus2 H7sus4 H7 H7+5 H7
Em H7 Em
Постигаю я терпение, мой друг,
Am D G
Чистоте пытаюсь слово научить.
Am H7 C E7
Все, что кажется нам темным по утру,
Am H7 Em
 
 
Em Am Н7 Em
Наше время изумляет, разрывает нас на части,
Am D7 G
Мы гордимся этим веком, наша жизнь полна чудес.
E7 Am D7 G
Но на душу населенья чести, мужества и счастья
Am Em F#7 Н7 Em
Не убавил, не прибавил удивительный прогресс.
 
 
Am
Я вообще на ощупь страшно нервный,
Dm G C
Робкий и за|стенчивый до |слез
Dm Am
Друг сказал, что от привычки |скверной
E E7 Am
Пьешь мол без за|куски, как мат|рос
 
 
Am Asus Dm Dsus
Я воще на ощупь - страшно нервный,
E7b9 E7 Am Asus
скромный и застенчивый до слез ...
Am Asus Dm Dsus
Друг сказал, что от привычки скверной -
E E7 Am
пьешь, мол, без закуски, как матрос.
 
 
Вступление:
Em Am
1------------------------|----------------------|------------------------|
2------0-----1-----0-----|----------------------|------1-----3-----1-----|
3----0---0-----0-----0---|-----0-----0-----0----|----2---2-----2-----2---|
4---2------2-----2-----2-|---2-----2-----2------|--2-------2-----2-----2-|
5------------------------|-2-----3-----2------0-|------------------------|
6-0----------------------|----
 
Проигрыш:
Am(V) Dm(V) G7(III) C(III) Dm(V) Am(V) H7(VII) E7(VII)
[в скобках указан номер лада]
Am Dm
Я жизнь представляю просто
E Am
И видится мне в простоте,
Am/E Dm