Аккорды к песням для гитары

«Ария» аккорды

Cm Ab
Не дотянем мы до полночи
Eb G
Нас накрыл зенитный шквал
Смысла нет взывать о помощи
Жжет руки штурвал
Режет небо луч прожектора
Рядом - черные кресты
 
Em
Древний храм на скале освещен луной,
H
Сотни лет он стоит, скован тишиной,
H7
Там огонь священный жертву ждет!
Ветер бьет по лицу крыльями дождя,
Крик летит в пустоту, слышу эхо я,
 
C#m H
They call me an iron snake
A
But in the city house
All my life in Prison
G#m C#m
Such a fucking feeling - known as well
H
 
Небо долгий коридор срывается в закат
G Dm
Режут даль небесные клинки
Am C
День назад был начат спор в багровых облаках
G Dm
Над залитым кровью зеркалом реки
F C
 
 
Вступление:эл. гитара 1:
1--------------------------------------------------------|
2--------------------------------------------------------|
3-----------------4--5-4---------------------------------|
4|-4---9---7-5-4-5--4---4-5-7--------7-5-4---4-----------------------|
5|-2---7-------------7-7-------------------7-------------------------|
6--------------------------------------------------------|
эл. гитара 2:
Am F
На краю обрыва, за которым вечность
Am F
Ты стоишь один во власти странных грез
Am F
И, простившись с миром, хочешь стать беспечным
C G
Поиграть с огнем нездешних гроз
 
 
1.-----------------------------------------------
2.-0-----0-----0---1---1-----1---0-----0-----0---
3.---0-----0-----0---0---0-----0---0-----0-----0-
4.-----2-----2---------2---2---------2-----2-----
5.-----------------------------------------------
6.-----------------------------------------------
1.------------------------------------------------
2.-1-----1-----1------0-----0-----0---1-----1-----
 
Вступление:
эл. гитара :
1-------------------------------------------------------------|
2-------------------------------------------------------------|
3|-(0)--------------------------------------------------------------------|
4|--5------9~~----------------------------------------------------7----9~~|
5|--7-----10~~----10----9----7----9~----7----5--------7--9-10-------------|
6|-(0)----(0)-------------------------------------------------------------|
 
Hm
Я рожден был ночью в час молитвы волчьей
C
В темном логове зверей,
Черный ангел ада был со мною рядом
На кругах людских страстей,
Я прошел сквозь пламя был огнем и камнем,
Червем был средь мертвых тел.
 
Вступление:
Dm G C F A# E A
E|------------------------------------------------------------------------------
B|----------10-8----------------8-6-5-------------6-5-3-5-5-5-5-3------
G|----/7--7------10-7-----/5--5-------5-----/3--3-----------------3--2-
D|-----------------------------------------------------------------------------
A|-----------------------------------------------------------------------------
E
 
[ на оригинальной записи гитары настроены в Eb ]
Em
Рука его мала,
Но в ней зажал весь мир
Как жалкого птенца,
F#dim
Изранив когтем.
И не излечит ран
 
Рука его мала, но в ней зажал весь мир
Как жалкого птенца изранив когтем
И не излечит ран его победный пир
Уродливость лица не скроет копоть
 
Божий гнев - бич небес
Глотает пот и пыль
Жизнь в седле, смерть и блеск
 
Все струны на гитаре опускаются на полтона ниже. Все акорды
для удобства указаны на полтона выше.
Intro.
Eb----|
Bb----|
Gb----|
Db|----0-----0-|----0-----0-|----0-----0-|----0-----0-|
Ab|--2-----2---|--2-----2---|--2-----2---|--2-----2---|
 
Dm
Вечер умирал, наступала ночь,
C Dm
Необычный бал грянул во всю мощь...
Dm
Стольная Москва в толк не может взять
C Dm
Что сюда спешит дьявольская знать
 
 
Riff 1 :
bend 1/4
E---------------------------------------------------------------|
H---------------------------------------------------------------|
G---------------------------------------------------------------| This line
D-------9----------7-------------------0-------------0----------| play
A----9-----9-----7------------------4-----4-------4-----4-------| 4 times
E--7-----------5------3^--5--3---2-------------2----------------|
 
Bm A G F#
Вдаль мчались стаи зимних птиц.
Дым гнал их прочь быстрей лисиц.
D A F#m G
Дым плыл, над всей землей.
Em7 F#m G
Лютый сброд закатил пир горой.
Em7 F#m Bm
 
 
(Холстинин/Дубинин/Пушкина)
4|------9--------7----------|------0---------0----||
5|----9---9----7------------|----4---4-----4---4--|| --> 2 times
6|-7---------5------3--5-3--|-2---------2---------||
Hm A G F#
Вдаль мчались стаи зимних птиц,
Hm A G F#
Дым гнал их прочь быстрей лисиц.
1||----------0--------2--------0-------|
2||-------0----0--------0--------0-----|
3||-----0--------0--------0--------0---| x2 раза
4---2--------2-|
5--------------|
6||--0----------------0--------0-------|
Em
В воздухе пахнет бедой
 
С#m H A G#
Снова брошен в окна лунный свет
C#m H A H C#m
Дом мой сонный серебром одет
C#m H | H A | G#
М-м-м.. > 2 раза
Лунной кисти не достичь глубин
Эту бездну знаю я один
 
Tuning: half-step down (e to eb
H to Bb
G to Gb
D to Db
A to Ab
E to Eb)
Tempo: moderately fast (148 bpm)
INTRO:
Оригинальная тональность D#m, для удобства игры эту песню записал в ми-миноре (Em) :)
Вступление:
E-------------------------------------
H-----------0-------1-------3-------3-
G----------0-0-----0--0-0--0--0-0--0--
D-----0---2---2---2--2-2--0--0-0--0---
A--0-2---2-----2-3--------------------
E-3-----0----------------3-------3----
* Оригинальная тональность D#m
D#m
Этот парень был из тех,
H F#
Кто просто любит жизнь.
D#m
Любит праздники и громкий смех,
H C#
 
 
Вступление (Аккорды - (Em C G) - 2 раза)
E-----------------------------------------------------------------------------------------------------------------------3--------|
H-----------------0-------------1----------------3---------------3-------------------0-------------1----------------0---0------|
G---------------0---0---------0-----0---0-----0-----0---0-----0-------------------0--0---------0-----0---0-----0-------0----|
D-------0-----2-------2-----2-----2---2-----0-----0--
 
H||--------3-7-5-5--3-1-1--0---------3-7-5-5--3-1-1--0-----------------
G||--0-2-4----------------0----0-2-4----------------0----4-4-4-4-2-----
H||----------------------------------------------3-3-3-3-5-7-5---------
G||-2-2-4-4--4-4-4-4-2--2-----2-2-2-2-2-2-2-4-4------------------------
D||----------------------0-2-------------------------------------------
H||-5-5-5-5-5--5--3-3---5-5-5-5-5--7--8-8---8-8-8-8-8-8-5--5-5-3-3-3---
H||-3-5-5-5-8-8-8-3---3-3-1-0-1--1-3--
 
Dm B
Дай мне сойти с ума,
Gm A
Ведь с безумца и спроса нет.
Dm B
Дай мне хоть раз сломать
Gm C
Этот слишком нормальный свет.
 
Dm С
Бивни черных скал и пещер тупой оскал,
G A7 Dm (A7)
человек среди гор ничтожно мал.
Он ползет наверх, он цепляется за снег,
за туман и за воду быстрых рек.
Gm B Dm
Он до цели доберется,
 
Музыка - С.Попов
Слова - М.Пушкина
D#m B H C#
И роса, и слеза
D#m B F#
Пеленою на глазах
D#m B H C#
В черной заводи колодца
 
Вступление: Gm - 4p.
Gm
Нам с тобой казалось, что мы будем жить всегда
F Gm
И цыганкам разрешали по руке своей гадать.
Gm
Их невнятный шепот принимали не всерьез,
F Gm
 
 
[ на оригинальной записи гитары настроены в Eb ]
 
Dmadd9
Тем, кто видел маску смерти,
По-другому солнце светит
Badd11 C Dmadd9
Теперь ты один из них.
Ты проводишь в поединках
 
Всем, кто видел маску смерти,
По-другому солнце светит -
Теперь ты один из них.
Ты проводишь в поединках
На пропахшем потом ринге
Все ночи свои и дни.
 
Бои без правил - ни жалости, ни игры.
 
Снова ночь, и в глаза вползает страх
Сон и смерть так похожи - брат и сестра
Страшно быть одному и ждать рассвет
Как спасенья
Страшно плыть по теченью - войны уже нет
Нет, а я молчу
Нет, я жгу свечу, чтоб не спать
Нет, а я молюсь
 
E|-0--2-3-2-0----3--5-7-5-3-5-7--5--4-5-4-2-4-5-4-2-1-2---|
B|------------3-------------------------------------------|
C
Эй, гони-ка парень с ветерком,
G# C
Чтобы пела кровь и пыль столбом.
C
Пусть нам свистнет старый леший вслед,
Intro:
Вообще то вступление играется на органе, но если положить на гитару, то будет примерно
так:
E----------------------------------------
B----------------------------------------
G----------------------------------------
D------------------------5-7-9-7-5-7-9---
A----7-9-10-9-7-5-2----------------------
 
F#m D5- F#m6 D
Солнце чертит круг и снова за спиною как часовой,
Чуть короче жизнь и чуть длиннее тень.
Но ответить не готово небо над моей головой
Для чего я здесь считаю каждый день.
Hm F#m
Ждет, когда я крикну, выплесну боль,
Hm D G# A H G
 
Em G
Рухнул мир, сгорел дотла
Am H
Соблазны рвут тебя на части
Смертный страх и жажда зла
Держат пари...
В темноте рычит зверье
Не видно глаз, но все в их власти
 
Am C
Рухнул мир, сгорел дотла
Dm E
Соблазны рвут тебя на части
Смертный страх и жажда зла
Держат пари...
В темноте рычит зверье
Не видно глаз, но все в их власти
 
 
Em C Am G D
Перед битвой волчью кровь пьешь из древней чаши
Поднимаешь черный стяг и вступаешь в бой
Богом Севера храним, гордый и бесстрашный
Против тысячи один, на земле чужой
Корабли твои сожгли хитрые лисицы
Стынет золото на дне, клад монастырей
Меч поет в твоих руках, звездами искрится
 
 
Intro: Dm | Dsus2-5 | Dm | Dsus2-5 > 2 раза
Dm Dsus2
Слепая ночь легла у ног
Dm Dsus2-5
И не пускает за порог
Брожу по дому как во сне
о мне покоя нет нигде
Gm
 
Em
Он рубил, поджигал и бил в упор
Волонтер темных дел и чужих афер
Em
Он копил собирал на старость лет
Он забыл, но его не забыли, нет
C Am Em
Каждый сам, каждый сам за все,
 
 
Em
Он рубил, поджигал и бил в упор,
Волонтер темных дел и чужих афер.
Он копил, собирал на старость лет,
Он забыл, но его не забыли, нет.
C Am Am7 Em
Каждый сам, каждый сам за все,
C Am Em
 
 
Gtr1
E---------------------|
B---------------------|
G---------------------|
D||-----9--------9-----11--12--|-----9--------9-----7--9--|
A||-----7--------7-----9---10--|-----7--------7-----5--7--|
E||--0-----0--0-----0----------|--0-----0--0-----0--------|
в глубокой шахте который год
 
("С кем ты?", 1986)
Большаков/Елин
Основная тема:
E
1--------------|
2|-T-----------------------|
3--------------|
4|-A-|-9-9-9-9-9-9-11-12-|-9-9-9-9-9-9-7-9-|-9-9-9-9-9-9-11-12-|-9-9-9-97-|
 
("Химера", 2001)
Дубинин/Пушкина
Вступление: A A5b Dsus2 A C A C A
1.
A A5b
Ночью день разорван, затянула рану мгла,
A C A C A
Смотрит черный ворон на меня рубином глаз.
C Am A#m C Am G
Эй, полюби меня чумазым, а чистым каждая возьмёт.
C Am A#m Bm
Я убеждаюсь с каждым разом, всё сильней,
C Am A#m
Что жизнь с тобой- не Новый год!
C Am A#m C Am G
Нет, я- не принц и я- не белый мотылёк,
 
 
F C G
Эй, полюби меня чумазым,
F C G
А чистым каждая возьмет,
F C G
Я убеждаюсь с каждым разом все сильней,
F C G
Что жизнь с тобой - не Новый год.
 
Em C
Дверь на ключ и свинцом тоска
D A7
Боль в душе словно смерть близка
Em Cmaj7
Один лишь шаг может все решить
D A9
Теперь ты враг я не знаю как мне жить
 
Em C
Дверь - на ключ, и свинцом - тоска,
D A
Боль в душе, словно смерть близка.
Em C
Один лишь шаг сможет все решить,
D A
Теперь ты враг, я не знаю, как мне жить,
 
 
Hm G
Кто сказал, что страсть опасна, доброта смешна,
A Hm
Что в наш век отвага не нужна?
Hm G
Там где старь от ветра часто рушится стена.
A Hm
Крепче будь и буря не страшна.
 
Dm B
Кто сказал, что страсть опасна, доброта смешна,
C Am Dm
Что в наш век отвага не нужна?
Dm B
Как и встарь от ветра часто рушится стена.
C Am Dm
Крепче будь и буря не страшна.
 
 
E
Один глоток моей душе не даст огня,
Но искру может дать второй,
A
И вот опять с утра никак мне не понять,
E
Кто здесь, покойник, кто живой!
A G A G
 
 
Am
Твой дом стал для тебя тюрьмой
G F
Для тех, кто в доме, ты - чужой
G Am
Ты был наивен и ждал перемен
Am
Ты ждал, что друг тебя поймет
 
 
Em
Твой дом стал для тебя тюрьмой.
C
Для тех,кто в доме,ты чужой.
D Em
Ты был наивен и ждал перемен.
Em
Ты ждал,что друг тебя поймет.
 
 
Tempo: moderately fast (141 bpm)
INTRO:
(0:01 - 0:14)
RIFF 1 (play 2 times):
Gtr.E||---------------------------------|---------------------------------|
H||---------------------------------|---------------------------------|
G||---------------------------------|---------------------------------|
D||-4-------5-------4-------7-------|-3-------------------------------|
INTRO:
Гит.1E----------------------------------------|
Гит.2H----------------------------------------|
G----------------------------------------|
D--Барабанное вступление ------------2---|
A------------------------------------2---|
E------------------------------------0---|
(0:01 - 0:20)
Am
За дверь я выгнан в ночь,
F
Но выйти вон и сам не прочь,
Dm
Ты без меня хоть застрелись,
F
Все решат, что это твой каприз,
 
intro
Am F Dm E Am
e--------------------------------------------------------------|
h--------------------------------------------------------------|
g---------------------------3-4-5------10-7---7-10-9---9-10----|
d|-7---------------------------3--3-5-6-------10~--10-7-7---10-9-9---10----|
a|-7--------7-----7--7-7--7-7--3--------------8-~--8--5-----8--7-----8--7~-|
e|-5--5-7-8---8-7-5--5-5--5-5--1---
 
D
Что за скорбные лица?
C/9/D
Слезы льются ручьем, и дождь в придачу.
G/D
Ты разводишь руками.
D
Дело труба.
 
 
D
Что за скорбные лица?
C
Слезы льются ручьем, и дождь в придачу.
G
Ты разводишь руками,
D А
Дело труба.
 
Dm C B Dm B A A7/G A+5/F A
Дай руку мне.
Здесь лишних нет.
B Dm
Ветру ты кажешься не больше песчинки.
B
Ветер легко собьет с дороги,
A
 
[ на оригинальной записи гитары настроены в Eb ]
Вступление:
1|----------------|----------------|----------------|-----------------|
2|----------------|----------------|----------------|-----------------|
3|-------0--------|-----0-----0----|-------0--------|-----0-----0-----|
4|-----2----4-2---|--2-----2-------|----2----4-2----|---2-----2-------|
5|--2-----------5-|-3-----4--------|---2----------5-|-3-----4---------|
6|-0--------------|-------------
Горизонт - недосягаемая нить
Вдаль глазами, в пол педаль
Скорость не поможет о тебе забыть
И мне ничего не жаль
 
Делится час на километры
Всё осталось позади
Бред прошлых лет развеет ветром
 
Dm
Утро в декабре туманом окутано,
C
Под ногами белый снег-предатель.
Dm
Виден каждый шаг, и холоду лютому
B A
Слишком просто сладить с тобой.
 
 
Em
Вновь и вновь я вижу сон
C
Кровью залит горизонт
D C D
И земля в огне на много миль
Em
Шесть минут до часа икс
 
C#m
Время иссякло хватило бы сил
Есть шанс дотянуть до заветной черты
Крылья машины блестят серебром
E F F#
Ты - cловно мишень под прицельным огнем
G#7 A
Стерта грань "свой – чужой"
 
 
(оригинальная тональность - Dm)
Em D/E
Ты сменишь лицо, как наряд,
C#m/E C/E Em
Ты войдешь в чье-то тело неслышно, как змея,
D/E
Ты кольцами сдавишь меня,
C#m/E C/E
 
E Am
Кто-то сказал, что он может бежать даром, даром.
E Am
Кто-то услышал и стал торговать паром, паром.
G F
Несколько звонких монет - приобретайте билет,
E Am
После сеанса вас ждет ресторан с баром, баром.
 
Intro:
e|-----4-2-0h2p0-----------|---4-2-0h2p0---------------|
B|---0-----------4-2--2--0-|--0----------4-2--0--2-2-4-|
G|-1-----------------------|-1-------------------------|
D------------------------------|
A---------0--2-----------0-0-2-|
E|-----0-------------------|---0-----------------------|
e|-0-----0-2-----0-4-----2-0h2p0-----------0--------0--|
Em Am D Em
Я вижу, как закат стекла оконные плавит
Em Am F# B7
День прожит а ночь оставит тени снов в углах
Em Am D Em
Мне не вернуть назад серую птицу печали
Em Am F# B7
Все в прошлом так быстро тают замки в облаках.
 
 
Вступление: Hm G A > 4 раза
Hm G A
Мы колесили по дорогам,
Hm G A
Меняя струны и подруг.
G F#m
О, нам не хватало рук.
Hm G A
 
Em F#
Я здесь, я пришел к тебе
G F#
Пришел вопреки судьбе
С небес льется лунный свет
Я - зверь, мне покоя нет
Am
Крадусь в темноте как тень
 
 
A
Здесь не место для бесед,
Грохот на пределе.
Как при старте ста ракет,
Как девятый вал.
Заготовки молот бьет,
Кровь ликует в теле,
Льет горячий жгучий пот -
 
вст. Em Am Em Am C A#m Em
Em Am
Сделай только шаг в сторону воды
Em Am
Пусть на миг замрет душа вниз уходишь ты
C A#m Em
В колыбели миров ты пришелец и гость просто гость
Em Am
 
 
Intro :
E------------------------------------------------------------------------|
H------------------------------------------------------------------------|
G------------------------------------------------------------------------|
D---7--------5--------4--------5--5--5--5--4------2----(2)---------------|
A---7--------5--------4--------5--5--5--5--4------2----(2)---------------|
E---5--0--0--3--0--0--2--0--0--3--3--3--3--2--0---0----(0)---------------|
Em
Грянул хор и качнулся храм,
D/9/E
Смерть пришла за мной в пять часов утра -
C H Em
Боль рванула грудь, сразу стал всободен я.
Лица шлюх из миланских лож,
Лица старых дев сводит злобы дрожь -
 
 
Em
Грянул хор, и качнулся храм,
D
Смерть пришла за мной в пять часов утра,
C H Em
Боль рванула грудь, сразу стал свободен я.
Лица шлюх из миланских лож,
Лица старых дев сводит злобы дрожь.
 
Am
Они посмотрят с вышки,
Они составят план.
И люди, словно фишки,
Уйдут в густой туман.
Они в слепом азарте
Нажмут на пуск ракет
И вычертят на карте
 
 
Am G C F G
Кто видел Икара,
Am G C F E
Там в синей дали?
Am G C F G
Крыл легкая пара,
Am G C F E
Сын грешной земли
 
Am
Закрой глаза, коснись меня
E
Ты пахнешь соблазном и медом
Dm F
Исчезнет грязь осколков дня
E
Ударит в гонг природа
 
Am Am*
Закрой глаза, коснись меня
F E
Ты пахнешь соблазном и медом
Dm F
Исчезнет грязь осколков дня
E E* E E*
Ударит в гонг природа
 
 
[ на оригинальной записи гитары настроены в Eb ]
 
Em C7
Он был изгоем с первых дней,
Но выжить смог в грязи на самом дне.
Звериный нюх, бесшумный шаг
G A Em
Этим миром владел он в мечтах.
 
12~--|
|--------(12)---|------(12)~-|
|-----(12)------|---8--------|
|---9------------|
----|-9----------|
|-0--------------|
-------|-----(12)---|
|--------(12)-------|
Bm
Боги прокляли спятивший Рим,
Ab
Город брошенных женщин и калек.
Eb
Здесь глотают отравленный дым,
Gb H
Режут лезвием вены.
 
G
Я о ней мечтал всю жизнь
наконец мои желанья сбылись
Am
Вот она. Вот она!
Вся блестит и манит взгляд
на такой не грех отправиться в ад
Вот она. Вот она!
 
Am Asus4
Я о ней мечтал всю жизнь
Am C
Наконец мои желанья сбылись
G Am
Вот она. Вот она!
Вся блестит и манит взгляд
На такой не грех отправиться в ад
 
 
C#m
Древние рощи полны голосов
H A C#m
Шопотом трав и камней
C#m
К северу тянется дым от костров
H A C#m
Враг рыщет в той стороне
 
 
Dm
Древние рощи полны голосов,
C B Dm
Шепота трав и камней.
К северу тянется дым от костров,
C B Dm
Враг рыщет в той стороне.
Dm E Dm
 
 
Cm
Древние рощи полны голосов,
B G# Cm
Шепота трав и камней.
К северу тянется дым от костров,
B G# Cm
Враг рыщет в той стороне.
Cm D G# Cm
 
Gm A
Древний град Иерусалим довлеет над тобой, Понтий Пилат.
Ты готов сорваться в Рим, махнуть на все рукой, забрав с собой солдат.
F#
Ты устал от этих лиц
G
От чужой, неискренней земли
F#
 
Ebm H Ebm H
Голос, певший тебе в ночи, замолчал навсегда
Ebm H Db Ebm
И сгорают в огне свечи за годами года
Те, кого ты всю жизнь любил, у небесных ворот
А король, властелин судьбы пробуждения ждет
Ebm
Он венчал свою жизнь и бессмертие
 
1-Й КУПЛЕТ:
--------------------------------------------------------------------
--------------------------------------------------------------------
-2-----0-----0-------------------2-----0-------0-7---5---7---5------
---4-----2-----2-4-----24----2-----4-----2---2----------------------
-------------------5-----3-----3-------------------0---0---0---0----
-----0-----0---------0-----0---------0-----0------------------------
сно - ва в пол - ночь слы -
 
Tempo: slow (80 bpm)
(0:01 - 0:26)
INTRO:
Church Organ.
...
(0:26 - 0:50)
VERSE 1: (*2 times)
Choir1E|-10------------------------------------------------------------------------------------|
C#m F#m E
Ты в лабиринте вечных истин
C#m F#m E
Где тускло факелы горят
C#m F#m E
Здесь можно дать свободу мыслям
C#m F#m E
Толкуя знаки на свой лад
 
Em G G# Am
Машина смерти сошла с ума,
Am G F Em H C H Em
Она летит сметая всех.
Мы увернулись на этот раз,
Ушли по белой полосе.
Am H C Em
Мы здесь сегодня,
 
Hm A G Hm
Мне никогда не войти в этот сад,
G Hm G A
В нем нет цветов для меня.
Hm A G Hm
Я ненавижу штыки оград,
G F#
Бьющих в сплетение дня.
 
Ebm Db
Расстояние руки отделяло нас от драки
Ebm Db B
Был у нас глоток реки, ветер, облака
Были те, кто нас вели и разгадывали знаки
Солнце - маятник Земли светило свысока
B
Медленно плетет судьбу веретено
 
Fm Db
Война гонит ветер ужаса
Eb Fm Eb
Пепел веков и дней
Db
Судьба вещей птицей кружится
Ab Eb
Над головой моей
 
Am
Ты устала быть покорной,
F G Am
Ты устала быть рабой.
Жить надеждой иллюзорной,
Отвечать на жест любой.
Припев:
E -----------------------------------------5-5---8-7-|
Вступление:
Hm | A | Hm | A > 2 раза
Hm A Hm A
Гонит ветер осенней листвы отзвеневшую медь,
Hm A Hm C F#7
Замолчала душа и не хочет ни плакать, ни петь...
Em G A7 C
Выход ищут слова, оставляя на чистом листе след,
 
 
D#m
Жить в эпоху великих перемен
H
И врагу своему не желай
D#m
Мир - словно порох умов опасный крен
H
На дыбы встала даже земля
 
A G F# G F# Em
A
Твой флаг поднят вверх
Идет жизнь без помех
G F# G F# Em
Вперед!
Все взял, что хотел
А то, что не успел
 
C#m F#m H
Рассвет еще далек, но тает грим любви
C#m F#m H
Усталость вижу и смятенье, взглянув в глаза твои
C#m F#m H
При свете ты – никто и растворишься с новым днем
C#m F#m H
Одна, но против всех течений. Быть вне закона – твой закон
 
Bm
Город уснул в душной ночи
Черная лента вьетсяб как змея
Все зачеркнутьб все изменить
Из подсознанья вырвать тормоза
C#m
Новый вираж преодолеть
Ток пропустить по нервам в сотый раз
 
Для удобства -1
Fm
Зло надевает маски пророков и вождей,
Зло продает нам сказки и никаких идей.
A#m
Но еще с колой и попкорном испытай на себе,
Fm
Как быть всегда покорным одной большой судьбе.
 
 
E|------------------------------| 2 раза,
B|------------------------------| затем 2 раза на бэк-фоне
G|------------------------------|
D|--------5----0-3---0-2---0-1--|
A|------5----3-----2-----1------|
E|---3--------------------------|
E|-------------------------------------------------------|
B|-------------------------------------------------------| 2
Dm C B
Я не верил, что я мертв, я слышал брань и плачь.
Am Cm
Видел как над телом там внизу шаманил старый врач.
C B
Я плыл в черной пустоте, я обретал покой.
Am B A Dm
Свет в конце тонеля, как магнит тянул к себе дух мой...
 
 
Am
Ты совсем одна, ты в тупике
G Am
В душной неволе
Быть его рабой на поводке
Ты не смогла...
Ты не смогла, в сердце игла
Полная боли
 
 
D#m C# D#m C# Bm D#m
Ты совсем одна, ты в тупике, в душной неволе.
D#m C# D#m C# Bm D#m
Быть его рабой на поводке ты не смогла.
D#m C# Bm D#m
Ты не смогла, в сердце игла полная боли.
D#m C# D#m C# Bm D#m
И зовут тебя, там вдалеке колокола.
 
Ebm Gb B
День или ночь - никому не понять
Храм разорен, крест в объятьях огня
H B
След христиан смыт водой с грешным запахом роз
Там, где Христос чудеса сотворил
Меч мусульман тамплиеров казнил
Свет неземной над телами узреть довелось
 
Intro
00:30
e(------------------0------------------------------------0------------)
B(----5-6-8-6-5-1-----1^3^1-----------5-6-8^10^8-6-5-1-----1^3^1------)
G(----------------2---------2-4-4-5-5------------------2---------2----)
D(----------------0------------------------------------0--------------)
A(----------------------------------3--------------3------------------)
E(-8------6---5---------------3--------------6-------5----------------)
C
Ты уходишь прочь из дома
Dm Fm G
В час когда все крепко спят
C G Am
По дороге незнакомой
G
От рассвета на закат
 
 
Em F# F
Мне не до сна палач придет на рассвете
Em C D
И звук шагов за дверью бьет словно нож
Em F# F
Но в клетку входит не гонец верной смерти
Em C D
А, в рясе черной, Святая Ложь
 
E--------------||
H--------------||
G--------------||
D||-----2---2---2---|-----2---2---2---|-----2---2---2------2---||
A||---2---2---2---2-|---2---2---2---2-|---2---2---2---2-|---2---2----2---2-||
E||-0---------------|-0---------------|-0---------------|-0--------1-------||
Em
В рассветный час шакал, о голоде забыв,
Вступление:
Am F
e||----------0------------------|-----------------------|
H||----0-1-3------3----1----1---|--0---1-0--------------|
G||--2----------2----2----2-----|----------2------------|
D||-----------------------------|-----------------------|
A||-----------------------------|-----------------------|
E||-----------------------------|-----------------------|
intro solo:
----|------0----1----|--5------------|
|--3---------------------|
-------------|
-------------|
-------------|
-------------|
--------------------|-------1-3--1----|--0------------|
Музыка - В.Холстинин
Слова - М.Пушкина
Композиция впервые опубликована на альбоме "Крещение огнем" (трек 4).
Em
Мой меч - это власть, мой меч - закон
Мой плащ кровь впитал и дрожь времен
Am
Я - палач, и я рожден бессмертным
 
 
Tempo: free time, for most of the time
INTRO:
BassG|----------------------------------------------|
D|-------------------------------------------|
A|----------------------------------------------|
E|------ Natural Harmonics ---------------------------|
BassG|-------------------------------------------|
D|-------------------------------------------|
1|----4-4-4-4-2p0----4-4-4-2-0------------4-4-4-2-4-4/5--4p2-------------|
2|-5---------------------------4-4/5--2----------------------5p3-3p2-2p0-|
3-----4------------------------------------------------------|
1|----4-4-4-4-2p0-7--7-7-7-9-7---5/7--4---4-4-4-2-4-4/5--4p2-------------|
2|-5---------------------------------------------------------5p3-3p2p0---|
3----------------------------------------------------------2-|
Intro: Em
4|----------5------|
 
Он был изгоем с первых дней
Но выжить смог в грязи на самом дне
Звериный нюх, бесшумный шаг
Этим миром владел он в мечтах
 
Он знал что запах правит всем
Прогонит прочь, возьмёт без боя в плен
К сердцам людей был ключ готов
 
Dm F
Боги далеких гор, мчаться во весь опор,
C B A
Во сне в свой край,
Dm F
Молятся на восход, режут людей как скот,
C B A
И жгут свой рай,
 
(0:01 - 0:11)
Интро:
Бас G-----------------------------------|
D|---5-----4------------------------------------|
A--------5-----4--------------------|
E------------------------3-----0----|
(0:11 - 0:19)
Рифф 1:
Музыка: В.Дубинин, Слова: М.Пушкина
Вступление:
Em Em | C D | C D | Em Em > 4 раза
Em Em | Em GAmG > 2 раза
Em F#m G
Поле битвы. Собран урожай.
A Am Em GAmG
Солнце закрыло тень, в ночь превращая день.
 
 
Ebm
Свинцовой тучей тяжелеют небеса
Abm
И воздух плавится от слов непримиримых богов
Ebm
Догорает фитиль
Восточным эхом долетают голоса
Они толкают землю в третье столкновение миров
 
Am7 D7/A
От края до края небо в огне сгорает,
F7/A C G
И в нем исчезают все надежды и мечты.
Am D7/A
Но ты засыпаешь, и ангел к тебе слетает.
F C G
Смахнет твои слезы, и во сне смеешься ты.
 
D#m
Под ногами хрупкий лед, взвод уходит на восход
C# H D#m
Тени на снегу - отпечатки душ
Не загадывай вперед, кто кого переживет
C# H D#m
Если Бог за нас - отведет беду
G#m F# D#m
 
Em
Все сказаны слова, все сделаны дела
C H Em
И снова вместе на дороге мы с тобой
Время в даль лететь, нет больше сил терперь
Когда ты в коже, на коне, а конь стальной
Я не состарюсь никогда, в крови огонь, а не вода
А не по нраву я кому-то - мне плевать
 
C#m H C#m H
Стынет лед на губах, смотрит сквозь меня Судьба
A H A G#
И вперед дороги нет, нет назад пути
C#m H C#m H
Я один навсегда, так жесток небесный дар
A H A G# C#m
Жизнь забыла, смерть не ждет у своей черты
 
Dm
В небе на битву сходились орлы,
F/Dm
Людям для войн нехватало земли.
Bb C# Dm Bb C#
Лето жгло свой восход.
Dm
Немцы убитых тащили во рвы,
 
 
Dm
Вспышка в темноте, яркий свет в глазах,
Я ослеп на миг. G7
Dm
Кто-то так хотел разбудить мой страх,
Разбудить мой крик. G7
Gm B
Снова все мои желанья, что я сжег дотла,
 
A
Ты брошен вниз силой судьбы,
G A
Ты унижен и раздавлен,
A
Время забыть то, кем ты был,
G A
Но помнить, кем ты стал.
 
Am Bm/A Am Bm/A
Дождь за окном надоел давным-давно,
Am Bm/A Am Bm/A
И увидеть блики солнца мне не суждено.
Am Bm/A Am Bm/A
Ты, словно тень, растворилась в темноте,
Am Bm/A Am Bm/A
Алый шарф застыл на стуле, как вчерашний день...
 
Итак :
Вступление,оно же проигрыш : C#m H A H C#m
C#m
Слушай! Ты вольным считал сам себя,
G#m
Только во всем походил на раба :
A(V)
Ты боялся подумать не так,
 
 
Вступление:
Em
e||--------------------------|-----------------------|
H||--------------------------|-----------------------|
G||--------------------------|-----------------------|
D||--2--4--5--2--7--5--4--5--|----4--2--4----2--0----|
A||--------------------------|-----------------------|
E||--------------------------|-----------------------|
 
[ на оригинальной записи гитары настроены в Eb ]
Em
Представь, что все случилось,
Явью стал твой сон.
Мы не напрасно бились
С вечной Тьмой и Злом.
Пропала Ночь бесследно,
Кошкой спрыгнув с плеч.
 
Представь что всё случилось
Явью стал твой сон
Мы не напрасно бились
С вечной тьмой и злом
Пропала ночь бесследно
Кошкой спрыгнув с плеч
Трубач сыграл победу
Вложен в ножны меч
 
Am
Город твой - двуликий зверь
C
Для тебя он днем откроет дверь
F E
А вот в полночь он объявит тебе
F G
Ты враг!
 
[ Em Esus2 ]
 
Em C
Мы уходим друг за другом,
Am7 D H
Не сказав последних слов.
Em C
Открываем дверь без стука
 
Em C
Мы уходим друг за другом,
Am D B7
Не сказав последних слов,
Em C
Открываем дверь без стука
Am7 B7 Em
В храм летящих облаков.
 
D#m H
Вечность смотрит в глаза
D#m H
Тянет вниз, не дает вздохнуть
D#m C# Ddim
Неужели все зря?
D#m G#m B7
Но так долог был этот путь
 
Tempo: 94 quarternotes per minute
INTRO:
(0:01 - 0:24)
RIFF 1:
Gtr.1E|--------------------------------------------------|
H|-------------------------- here ------------------|
G|------------------------ drums only --------------|
D|--------------------------------------------------|
 
Am H
Ночь темна, мир отчаянно пуст
F Am
Облака плывут домой
H
До тебя долетит моя грусть
F C C/H
Упадет с ресниц слезой
 
Am Dm*** E*** E
Свет дневной иссяк, и вокруг меня пустыня,
Am Dm*** E*** E
Звон звезд гонит прочь мрак, да светится твое имя
Я здесь, я нигде, но слезами боль не хлынет
Будь свят скорбный удел, да светится твое имя
C# H C# H
Ни ветра, ни сна, кто вспомнит меня
 
 
E|---------------------------|---------------------------------|
H|-----8-------7-8-10--8-7---|-----7-8-7-----------7-8-7-------|
G|-------------------------9-|-7-9---------9-7-9-----------9-7-|
D|-9-------------------------|---------------------------------|
A|---------------------------|---------------------------------|
E|---------------------------|---------------------------------|
Dm C
Свет дневной иссяк,
Строй гитары - Eb (все струны опускаются на 1 лад)
G#sus4 F#m Bsus4 B
--------------------- | ---
--------2---5------4- | ---
6-------2---4------4- |2 раза, потом -6-
6-------4---4------4- | -6-
4-------------------- | -4-
--------------------- | ---
Cm Fm
Огонь все ярче,
B G
страницы жизни в нем горят
ЧТо будет дальше?
об этом знаю только я
Вопросов больше нет
в ответ не слышно красивой лжи
 
 
Куплет 1
Dm Gm
Огонь все ярче
C A
Страницы жизни в нем горят
Dm Gm
Что будет дальше
C A
 
 
Купдет 1:
C#m F#m
Огонь все ярче
E H
Страницы жизни в нем горят
Что будет дальше
Об этом знаю только я
Вопросов больше нет
 
 
[ на оригинальной записи гитары настроены в Eb ]
 
Em
Когда мы солнце отдадим
На расправу темным силам,
H Am G F Em
Три цифры будут править бал.
Em
 
Когда мы солнце отдадим
На расправу тёмным силам
Три цифры будут править бал
Число четыре, пять, один
На шлеме смотрится красиво
Пускай свершится ритуал
И оставит смертельный шквал
Пепел веков
 
Dm
По дороге в Ад
Bb
Черный Всадник мчится -
Gm Dm
Бледное лицо и странный блеск застывших глаз.
Он посланник Зла,
Bb7
 
Вступление : Asus?,Am, E, H7/F#7...2 times
Am
По дороге в ад
Dm
Темный всадник мчится...
G E E7,Asus?,Em
Бледное лицо и странный блеск застывших глаз...
Am
 
Вступление: Am Bb Gm Am | Am Bb Am Bb (2 раза)
1.
Dm
По дороге в ад
Bb
Темный всадник мчится...
Gm Dm C
Бледное лицо и странный блеск застывших глаз.
 
 
Вст. - Am
Em
Смотри, близится финал,
Этот век все силы растерял,
D C#m C
Словно старый зверь, раненный зимой.
Вокруг кладбище надежд,
Вечный страх и торжество невежд,
 
Am
Смутное время -
Dm G
Призрак свободы на коне,
Am
Кровь по колено,
Dm G
Словно в каком-то диком сне,
 
Bm Db F
Странное чувство покоя, в прошлом тебя уже нет
H Bm Ab
В будущем ты превращен в Нескончаемый Свет
Луч восходящего солнца должен врага ослепить
Время найти свою цель и в атаку идти!
Db A H
Страж Империи на далеком стыке двух миров
 
Am C
1.Такая вот печаль -
Dm E
Никого и ничего не жаль,
Не жаль бродяг в пыли
И отчаянной моей судьбы.
Dm E
Я устал от слез,
 
G#m E
Такая вот печаль...
C#m D#
Никого и ничего не жаль.
G#m E
Не жаль бродяг в пыли,
C#m D#
И отчаянной моей любви.
 
Em C
Не ведьма, не колдунья
D Em
Ко мне явилась в дом.
Em C
Не в пору полнолунья,
D Em
А летним ясным днем.
 
Музыка: В.Дубинин
Слова: М.Пушкина
F#m D+7/F# E F#m
Не ведьма, не колдунья ко мне явилась в дом,
Не в пору полнолунья, а летним, ясным днем...
"Обычно на рассвете я прихожу, во сне,
F#m D+7/F# Hm C#m F#m
Но все не так на этот раз..." - она сказала мне
 
 
Ebm Db
Ты вернулся в жизнь, в наш непрочный дом
Ebm Db
Полный странных лиц и чужих имен
Gb H Db
Как в измерении другом
Gb H B
Тебе дышалось нелегко
 
Tuning: half-step down (e to eb
H to Bb
G to Gb
D to Db
A to Ab
E to Eb)
Tempo: fast (202 bpm)
INTRO:
Dm
Раньше ты был в стороне - не "против" и не "за"
B Dm
Но однажды Старший Брат тебе открыл глаза:
Dm
"Сговор древних мудрецов поставил мир на грань
B Dm
Власть в руках у чужаков, и ты им платишь дань!"
 
ВСТУПЛЕНИЕ
Clean Guitar
2 times F Gm
Dm B
E|--0----0-0-----1----1-1---|-5----5-5-----3----3-3----
B|*-3----3-3-----3----3-3-*-|-6----6-6-----3----3-3----
G|--2----2-2-----3----3-3---|-5----5-5-----3----3-3----
D|--0----0-0-----3----3-3---|-7----7-7-----5----5-5----
 
Em Hm
Эй, тореро, жизнь как миг
C Hm
Опять звучит трубы призывный зов
Em Hm
Эй, тореро, ты или бык
C Hm
Качается чаша весов
 
 
Dm C
Эй, тореро, жизнь как миг
Bb A
Опять звучит трубы призывный зов
Dm C
Эй, тореро, ты или бык
Bb A
Качаются чаши весов
 
 
Вступление и проигрыш после каждого куплета:
---------------------------------------------------------------------------
---------------------------------------------------------------------------
---------------------------------------------------------------------------
---------------------------------------------------------9-7-----7-5-------
-7-9-10-7-9-10-5-7-9-5-7-9-3-5-7-3-5-7-2-3-2-3-2--7-9-10---0-9-5-0---7-3---
-0-------------0-----------0----------
 
Am G
Эй, тореро, жизнь как миг
F E
Опять звучит трубы призывный зов
Эй, тореро, ты или бык?
Dm E
Качается чаша весов
F E F E
 
 
Intro:
I´m not shure in this chords.
E----------------------0----------------|
H--------------4----3---------3---------|
G-----------6--------------4-----|---5-5-5-5--5--5-|
D--------0---------|---------1--------|---------0--------|---5-5-5-5--5--5-|
A-----2------------|------3-----------|------3-----------|---3-3-3-3--3--3-|
E--3---------------|---4--------------|---1---------------------|
 
А G
Не дотянем мы до полночи
F# G
Нас накрыл зенитный шквал
Смысла нет взывать о помощи
Жжет руки штурвал
Режет небо луч прожектора
Рядом - "черные кресты"
 
D#m F# G#m B
Я уйду под утро,
D#m F# G#m B
Но уйду не на совсем.
D#m F# G#m H
След от слез припудри,
G#m B
Отдохни в обьятьях белых стен.
 
Аккорды такие:
Dm B/D E7 A/C#
-x-----x------x------x---
-x-----x------x------x---
(7)----x-----(7)-----x---
-7-----8------9-----(5)--
-5-----5------7------7---
-x----(6)-----x------9---
Cm
Жанна из тех королев.
Cm D G
Что любят роскошь и ночь.
Только царить на земле.
Ей долго не суждено.
G# A# D#
Ну а пока, как богиню на руках
 
 
Dm Bb Dm Bb Dm Bb E7 C#/A7
Жанна из тех королев, что любят роскошь и ночь.
Dm Bb Dm Bb Dm Bb E7 C#/A7
Только царить на земле ей долго не суждено.
Bb C F E Am F E
Ну а пока, как богиню на руках носят Жанну, Жанну.
Все началось не со зла, все началось как игра, но
Лестницу в небо сожгла - плата за стыд твой, и страх
 
 
Em C EmC Em C F# H(H7)
Жанна из тех королев, что любят роскошь и ночь.
Только царить на земле ей долго не суждено.
G(III) A(V) H(VII) G(III) C H(VII)
Ну, а пока, как богиню на руках носят Жанну, Жанну.
Все началось несозла, все началось как игра, но
Лестницу в небо сожгла - плата за стыд, твой, и страх
Ты и они, я порвал бы эту нить. слышишь, Жанна, Жанна.
 
E7
Ты хотела быть всех круче,
Cmaj7
Красотой своей замучить,
H
И заставить самых лучших
A7
Дружно платить тебе дань.
 
 
Уходи и не возвращайся.
C#m B A G#
И не возвращайся ко мне!
E7
Ты хотела быть всех круче
Cmaj7
Красотой своей замучить
B
 
[ на оригинальной записи гитары настроены в Eb ]
Em G D Am
Огненный шар коснулся воды,
C Hm/D C D
Океану доверив свой сон.
Звезд еще нет, близок час темноты,
C Hm Em
Синей дымкой укрыт горизонт.
 
Огненный шар коснулся воды
Океану доверив свой сон
Звезд еще нет, близок час темноты
Синей дымкой укрыт горизонт
Голос грозы затерян в горах
Где проходят границы веков
Время тревог тонет в древних снегах
До рассвета еще далеко..
 
Em C
Ты дитя окраин и горячих зон
Am D Em
Сын мертвой природы
Ты игрок без правил, сам себе закон
Ты воин свободы
H
Ты был никто, а теперь король
 
Вступление: Em C+7 Em B B7 - 2p.
Em
Гривы коней заплетал в косы ветер.
C
Мы вдаль неслись, выжигая поля.
Am
Голод страшней, чем жестокая битва.
F G
 
 
Всё началось среди веков
Танец вокруг невесты
Она юна стройна и чиста
Людям не жалко слов
И она тонет в лести
Но для неё слова - суета
 
Все хотят коснутся её плеч
 
[ на оригинальной записи гитары настроены в Eb ]
Dm
Мы кровью пишем нашу жизнь,
Edim
Не веря больше в миражи
Gm C
В непредсказуемой, как сон, стране
В стране героев и воров
 
Мы кровью пишем нашу жизнь
Не веря больше в миражи
В непредсказуемой как сон стране
В стране героев и воров
Награбленное грабят вновь
И сводят совесть как пятно на нет
 
Богом забытый край
 
Em H7
Ты слишком долго блуждал в темноте
Аm Em
И ты думал, что ночь - зто день.
Em H7
Ты видел сотни поруганных тел
Am
Но предать их земле было лень.
 
Ebm
Катится эхо горных лавин
Что-то не так, не тает в воздухе дым
Db B H
Застыл закат - земли холодной дрожь
Db
Идет волной...
Ветви деревьев рвутся в окно
 
 
Dm C Csus4 C
Штиль. Ветер молчит,
Gm Dm
Упал белой чайкой на дно.
Dm C Csus4 C
Штиль. Наш корабль забыт
Gm Dm
Один, в мире скованном сном.
 
Gm Am
В небе над нами яркое жало луча.
Gm Am
Мечется пламя, страшен удар палача.
F Am
Словно бумажный твой дом полыхает огнем.
F E
Ночь на часах, но вокруг все светло будто днем днем.
 
Bm F#maj7 Bm F#maj7
Так бесконечна морская гладь
F# Bm F#maj7
Как одиночество мое
Bm F#maj7 Bm F#maj7
Здесь от себя мне не убежать
F# Bm G#
И не забыться сладким сном
 
 
Em C
Дай мне жить, так, как я хочу
Am C D
Если нет - убей, мне здесь тесно
Em C
Знаю я - я всего лишь гость
Am C H
На твоей Земле мне нет места -
 
Cm
Надо мною - тишина,
Fm Cm
Небо, полное дождя,
Fm Cm
Дождь проходит сквозь меня,
B
Но боли больше нет.