Аккорды к песням для гитары

«Азъ» аккорды

Начало:
E-----------------------------------------|
B-----------------------------------------|
G-----------------------------------------|
D|--7-7--------7-7-------------7-7--------------------|
A|--7-7-7-6-5--7-7-7-6-5--2-3--7-7-7-6-5--3-2-0-3-0-0-|
E|--5-5--------5-5-------------5-5--------------------|
Рифф:
 
Начало:
B|-5--4--7--5-------1----| C#5
Далее всю песню идут квинты C#5 C5 D#5 C#5, E5 D#5 E#5* C#5
Это будет выглядить так:
E--------------------|
B--------------------|
G|--6--5--8--6----9--8--11-6-----|
D|--6--5--8--6----9--8--11-6-----|
 
E D
Сытные морды сынков
E C
Им по нутру эта ложь
E D
А горы для смельчаков
Hm C G Am
Романтика за грош
 
 
Вступление:
A| 5-5-5-5-5-5-6-6 |4раза
E| 3-3-3-3-3-3-4-4 |
A| 5-5-5-5-6-6-8-6-5-5-5-5-6-6-3-6 |
E| 3-3-3-3-4-4-6-4-3-3-3-3-4-4-1-4 |2раза
A| 5-5-5-5-5-5-6-6 |
E| 3-3-3-3-3-3-4-4 |2раза
Куплет:
 
 
Am G C
Дайте мне пулемет,
Dm E
Дайте мне красной икры.
Моя черта отрицает все цвета,
Меня не берет немота.
Будь что будет, а я буду плакать:
Я не мужчина – я труп…
 
 
соло : 1--7-7-7-7-5-7-10-7----7-7-7-7-5-7-0----7-7-7-7-5-10-7--- -8-8-8-8-7-5-3
Hm Am Hm Dm Hm
Не такая он ско . ти - на
Hm Am Hm Em
Что бы трахать всех под - ряд
Hm Am Hm Dm Hm
Он болеет скар . ло - ти - ной
Cm Hm Am Gm
 
D5 C5
Сезон менструаций сезоном дождей
D5 C5
В цветенье акации ночь длинных ножей
H5
Все это не сон и это не явь
C5
Обычный дурдом подмоченный кайф
 
 
Далеко уплыли мы от дома
Мальчики искатели дорог
Разменяв уют на бат тревог
Без оглядки взым с аэродрома
A
Мчались оставляя за собой
D A
След один из сотен тысяч
 
 
Am C
Не спеши гнать его он такой как и ты
G C
Да еще без фуражки и пьяный
Dm E F
Жизнь просто дерьмо но скорее всего
Dm E Am
Он в раскачку с работы усталый
 
 
Вступление:
D| --------------------------------------------------------------9-10-7 |
A| 7-7-7-7-7-7-7-7-8-7-7-7-7-7-7-7-7-8-7-7-7-7-7-7-7-7-8-7-7-7-7-7--8-5 | 2раза
D| 9--10-9--10-9--10-9--10-9-7 |
A| 7---8-7---8-7---8-7---8-7-5 | 2раза
D| 9-9-9-9--10--9-9-9-9--10--9-9-9-9--10-9--10-9-7 |
A| 7-7-7-7---8--7-7-7-7---8--7-7-7-7---8-7---8-7-5 | 2раза
A| 7-7-7-7-7-7-7-7--8-8-8-8--5-5-5-5 | 2раза
 
Dm
Ни одной живой души
Am
Эти суки все убили
Dm E
Я один в живой глуши
p.m Am
Кинут ими
 
 
1}--------------------------------------------------------------------------------- 2}--------------------------------------------------------------------------------- 3}-----2--4--5-------2--4--5--...
 
А5 F5
5)---2-------------2--------------------------
4 раза
4)-----2---4-5------2--4--5--4--2-------------
A5 F5
1.Уйдем от нищеты в поля где маской белый снег
A5 F5
Где как бы верит человек в свободные края
 
5)---2-------------2--------------------------
4 раза
4)-----2---4-5------2--4--5--4--2-------------
Am F
1.Уйдем от нищеты в поля где маской белый снег
Am F
Где как бы верит человек в свободные края
Dm E
 
Am Em Am Em
Я живу на помойке
Am Em Am Em
Вокруг меня грязь и тлен ,
Am Em Am Em
А менты поганые волки
Am Em Am Em
Каждый день берут меня в плен .
 
 
C
Я школу закончил едва , едва ,
Но , crazy , скажите она нафига .
G
Пошли вы на ....... .
C
Пошли вы на ....... .
G
 
 
Em
ПРИПЕВ:Ночью как вор я покину детства город
Am
Мне откроется простор
H
Леденящий душу холод
C
Приговор
 
 
Am C Am C
Я продаю воздушные комнаты
Я окропляю воздушные стены
Если у вас уже судьбы сломаны
Или достали чужие проблемы
Припев: Dm Am Fm
Вот вам стеночка
Am Dm
 
 
Em(H) C Em(H) F# G
1.Все что осталось тебе-выпить бутылку портвейна
Сядь закури сигарету-пепел развей по земле
C#m A H
Пр:Собаки галдят на луну
До драки в собачьем кругу
За мясо-глотку тебе
Нет часа любви на земле
 
 
Вступление:
1/-------------------------------------------------------------------------------------------------------------------------------
2/-------------------------------------------------------------------------------------------------------------------------------
3/-------------------------------------------------------------------------------------------------------------------------------
4/-------7---7--7--7--7-----0--8-----7---7--7--7--7-----0-------------7---7--7
 
Em Hm
Я брожу в своей квартире , как в огромном сартире .
Em Hm
Ползаю по стенке : я один в этом мире ,
Em Hm
Прячусь в ванной от теледиктатора ,
Em Hm
Рекламодателя и узурпатора .