Аккорды к песням для гитары
Транспонировать аккорды:   понизить тональность   повысить тональность

Аккорды песни «Мой рок-н-ролл»

Гитарная партия перебором (басы для первых двух тактов
можно брать как на четвертой, так и на шестой струне):
                           
e||-----------0--------------|-----------0--------------|
H||--------0-----0-----0-----|--------0-----0-----0-----|
G||-----5-----------5-----5--|-----5-----------5-----5--|
D||-(3)----------------------|-(5)----------------------|
A||--------------------------|--------------------------|
E||--1-----------------------|--3-----------------------|
                                                       
|-----------0-----------0--|-----------0-----------0--||
|--------0-----0-----0-----|--0-----0-----0-----0-----||
|-----5-----------5--------|-----5-----------5--------||
|--------------------------|--------------------------||
|--0-----------------------|--0-----------------------||
|--------------------------|--------------------------||.

И то, что было набело откроется потом,
Мой рок-н-ролл - это не цель и даже не средство,
Не новое, а заново, один и об одном,
Дорога в мой дом, и для любви это не место.

Прольются все слова как дождь, и там, где ты меня не ждешь,
Ночные ветры принесут тебе прохладу,
На наших лицах без ответа лишь только отблески рассвета
Того, где ты меня не ждешь.

А дальше, это главное, похожий на тебя,
В долгом пути я заплету волосы лентой.
И, неспособный на покой, я знак подам тебе рукой,
Прощаясь с тобой, как будто с легендой.

Припев

И то, что было набело откроется потом,
Мой рок-н-ролл - это не цель и даже не средство,
Не новое, а заново, один и об одном,
Дорога в мой дом, и для любви это не место... > неск. раз 

Используемые аккорды

Видео Би-2 «Мой рок-н-ролл»