Аккорды к песням для гитары
Транспонировать аккорды:   понизить тональность   повысить тональность
Купить гироскутер smart balance wheel suv 10 дюймов Магазин гироскутеров.

Аккорды песни «Серебро»

Chords:   Am   F   Dm   E

INTRO:
    Am
E--------0---------0---------0--------|
H--------1---------1---------1--------|
G------2---2-----2---2-----2---2------|
D-------------------------------------|
A----0----------0--------0------------|
E-------------------------------------|

Main part:
         Am        F         Dm        E         Am        F  
E------------0---------1-----------1---------0---------0---------1------ 
H------------1---------1-----------3---------0---------1---------1------     
G----------2---2-----2---2-----2-----2-----1---1----2-----2-----2---2---     
D------------------3---------0------------------------------3-----------
A--------0-----------------------------2---------0----------------------
E----------------------------------------------------------------------- 
Я не вернусь                  Так говорил   ког--да-то и туман          
                     

         Dm       E          Am          F          Dm        E
E------------1---------0----------0-----------1---------1---------0----- 
H------------3---------0----------1-----------1---------3---------0-----     
G----------2----2----1---1-----2-----2------2---2-----2---2-----1---1---     
D--------0-------------------------------3----------0---------2---------
A-----------------2----------0------------------------------------------
E----------------------------------------------------------------------- 
         Глотал мои  слова     И превращал их    В воду...


         Am        F         Dm         E       Am          F  
E------------0---------1----------1--------0----------0----------1------ 
H------------1---------1----------3--------0----------1----------1------     
G----------2---2-----2---2-----2-----2----1---1----2-----2-----2---2----     
D------------------3---------0------------------------------3-----------
A--------0------------------------------2-------0-----------------------
E----------------------------------------------------------------------- 
Я все отдам                   За продолжение пути  оставлю  поза--ди     
                     

         Dm       E          Am          F          Dm        E
E-----------1---------0----------0-----------1---------1---------0--0--- 
H-----------3---------0----------1-----------1---------3---------0--0---     
G----------2---2----1----1----2-----2------2---2-----2---2-----1---1----     
D--------0-------------------------------3----------0---------2---------
A-----------------2---------0-------------------------------------------
E----------------------------------------------------------------------- 
         Свою беспечную сво-боду... 

Припев:

Dm    Em       Am         |    Точного варианта перебора при
Не потерять бы в серебре  |    исполнении припева не привожу,
   F                      |    поскольку постольку любого уго-
Ее одну                   |    раздит сыграть эти аккорды похитрее.. 
Dm   E                    |    У кого не хватает воображения ре-
Заветную..                |    комендуется исполнить простым боем..)


Не по себе
От этой тихой и чужой зимы
С которой я на "ты",
Нам не стерпеть друг друга.
И до войны
Мне не добраться никогда,
Моя безумная звезда
Ведет меня по кругу.

ПРИПЕВ.

Solo
H---------5-------6--6--6--5-----------------------5---------6--6--6--5---------
G--5--5-------------------------7--5--4-----4/5--5---------------------------7--
D-------------7-------------------------------------------7---------------------

Мелодия
Chords: Am  F  Dm  E
                   
E-----------------0-----------------1-------1---1---1-----0-------------------
H----1-------1--------------------------------------------------3----1----0---
G--------2-------------2-------3----------------------------------------------
D---------------------------3-----------0-------0---------2----------2----0---
A----0----------------------------------------------------------2-------------
E-----------------------1-----------------------------------------------------
           
E-----------------0-----------------1-------1---1---1-----0---------
H----1-------1--------------------------------------------------3---
G--------2-------------2-------3------------------------------------
D---------------------------3-----------0-------0---------2---------
A----0----------------------------------------------------------2---
E-----------------------1-------------------------------------------

А в облаках
Застыл луны неверный свет,
И в нем перемешались города и Я
Зову ее несмело..
ПРИПЕВ.

Проигрыш: (Chords Am F Dm E)  
x 4 times 

      Am          F            Dm          E        
E---|------0----|------1----|------1----|------0----|--- 
H---|------1----|------1----|------3----|------0----|---    
G---|----2---2--|----2---2--|----2---2--|----1---1--|---     
D---|-----------|--3--------|--0--------|-----------|---
A---|--0--------|-----------|-----------|--2--------|---
E---|-----------|-----------|-----------|-----------|--- 

Проигрыш и мелодию можно исполнять под голосовое сопровождение - 
- различного рода звуки, подчеркивающие звучание той или иной ноты.
Спасибо за внимание.


 

Используемые аккорды