Аккорды к песням для гитары

«Дельфин» аккорды

Am Asus2 F(5) G(5) E(5) Dm6 F(второй вариант) A5
e-0-----0-----1----3----0----1----1---------------(0)-
b-1-----0-----1----3----0----3----1----------------x--
g-2-----2----(2)--(4)--(1)---2----2----------------2--
d-2-----2-----3----5----2----3----3----------------2--
A-0-----0-----3----5----2----x----x----------------0--
E-------------1----3----0----x----x-------------------
(Am)
 
Intro:
B----------------------------7------|
G|--6---8-9----6---8-9------6---8-9---------8---|
В куплете играется только:
B|-----7------|
G|--------8---|
Что ты видел в своей жизни хорошего
Что ты знаешь о цвете неба
Am C Em Em 8 paз
Am C
Я пoмню нaш пocлeдний вeчep, нaш пocлeдний paзгoвop,
Em Em
Пo тeлy твoeмy cкoльзит пocлeдний мoй взop...
Твoe бeльe нa пoлy, ты aбcoлютнo нaгa,
Ты пpижимaeшьcя кo мнe - в пocлeдний paз ты мoя!
Твoи плeчи тeплы, кaк вocк гopящeй cвeчи,
 
 
Вступление: GCx4р.(*) GCx4р.(**)
G C
E -------3--|-------0--| E --------3--|---------0--|
B ----0-----|----1-----| B -----3-----|----0^1-----|
G ---0--0---|---0--0---| (*) G ---0---0---|---0----0---| (**)
D --0--0--0-|--2--2--2-| D --0---0--0-|--2----2--2-|
A ----------|-3--------| A -----------|-3----------|
E -3--------|----------| E -3----------|
 
Intro:
e-----------------------|
B|--10--8----------|--10--8---------------------|
G|---------8h9--7--|---------9--------------10--|
D------|------(harm)12---10-11------|
N.C.
Она не пишет стихов, она не любит вино,
Она считает, что мы знакомы очень давно.
(((BASS - E,A,D,G)))
slap styl. - ^,*!!!!!
/ - slide up
- slide down
b - bend
Intro
------------------------|
|-----11-----10-----9-----8-----7---|
 
Hm A Em Мы обязательно встретимся, слышишь, меня прости. Hm A Em Там, куда я ухожу,
 
 
E|-------------------------------------------------------------------------------------------------------------------------------------------------------------------| B|-8---8--9--11----13--6-----4-6...
 
Am G Dm Мы обьязательно встретимя слышишь меня...Прости Am G Dm Там куда я ухожу...Весна...
 
 
E|----------------------------------------------1-|
H|------------------------------------------------|
G|------------------------------------------------|
D|------------------------------------------------|
A|-3-------------------1--------------------------|
E|--------------------------------------1---------|
Мы обьязательно встретимя слышишь меня.Прости.
E|------------------------------------------------|
 
Am
Ты смотришь на телеэкран передачу новостей
Dm
Ты узнаешь о том кто был сегодня сильней
G
Кто стрелял только в спину а кто только в лоб
E
И том кто хотел но почему-то не смог
 
Предисловие.
Ноты, указанные мною на 6-ой струне, играет бас, а ноты на
2-ой струне - из партии синтезатора. Естественно, играть в
две гитары или гитара плюс бас - гораздо удобнее, однако тем,
кто свободно владеет игрой пальцами правой руки (в том числе
и техника "медиатор+пальцы") будет совсем несложно объединить
оба ритма и сыграть "проигрыш" (см. ниже).
Условные обозначения:
 
Dm G C Am
Hy вот и все только сахарный дождь
Dm G C Am
Солит грязные лужи любви
F G E Am
Hy вот и все ты сегодня уйдешь
F G Am
Я прошу тебя не уходи
 
 
Em G
Я охапками листья кидаю в костер,
C Am
Синим дымом подпирая бледный неба шатер.
Они пеплом взлетают,прогорев до конца.
Я рукою стираю хлопья сажи с лица
Как будто так уже было,это просто усталость
Безразличием камня в моем сердце осталось
 
 
басы примерно такие
g--------------------------------------------------------
d--------------4-4--4-4--4-4---------------5-5--5-5--5-4-
a-5-5--5-5--5-5--------------2-2--2-2--2-2---------------
e--------------------------------------------------------
fig1(2 times)
e-----2--------7--5---3-2----2------7-5-|
h-3-----------------------3-------------|
 
C Am
Твоя душа океан, когда тебе десять лет,
Dm G
И на волнах твоей души играет солнечный свет.
C Am
Резвятся дельфины в бухте розовых грез,
Dm G
Отвечают тебе на любой твой вопрос.
 
 
Dm
Я тот, к кому ты заходишь часто,
Я тот, чей телефон ты знаешь,
Я тот, кто не ждет напрасно,
Если ты вдруг опоздаешь.
Ты от меня зависишь полностью,
У меня есть то, что тебе надо,
И ты мне деньги отдашь c готовностью
 
Intro: Em C Em F (x4)
Em C
Здесь все готово к твоим шагам
Em F
Когда придешь увидишь сам
Em C
Здесь все давно живет тобой
Em F
 
 
G A G Dm
Упасть на асфальт,
G A G Dm
Чтобы щеки в кровь,
G A G Dm
Чтобы не осталось сил
G A G Dm
Подняться вновь,
 
 
Главная тема: 3|--3-|--3--|----|-----|
4|-1--|-1-1-|-2--|-2-2-|
5|----|-----|--4-|--4--|
(1) У края дня
Ночь упивалась тишиной
Птиц хороня
За серебристою листвой
Немая топь
 
C D#
C D#
G# A#
C D#
Для меня это боль для нее лишь тоска
Для меня это жизнь для нее лишь игра
Для нее всечто было еще очень живо
Все что было со мной от меня далеко
 
intro: _______ ________
|1,2,3. |4.
4d|-6-----||*---6-----6---|---6------6-----*||---6-6-------
5a|---9-7-||--------------|------------9-7--||-------------
6e|-------||*-9---9-9---9-|-7---7----------*||-7-----------
1 куплет: _______ ________
|1,2,3. |4.
4d|-6-----||*---6-----6---|---6------6-----*||---6-6---6---|
 
{BASS}
Tuning - E,A,D,G
#####INTRO##### X 2
BASS 1
----------|
|12-12-12-12-1212|14-14-14-14-1414|
----------|
----------|
C Am
Когда ты вернешься я буду другим
F G
А может быть останусь таким как был
Когда ты вернешься будет теплый дождь
А может будет ветер бросающий в дрожь
Когда ты вернешься будет зима
А может будет шуршать под ногами листва
 
Am
Слеза за слезой
C
За раной рана
F
Моя жизнь утекает
G(?)
Как вода из - под крана
 
 
Hm
Слеза за слезой
A
За раной рана
F#m
Моя жизнь утекает
G(3)
Как вода из - под крана
 
 
(в начале играется так):
G--4--7--5------4----|
D--------------------|
A--------------------|
E--------------------|
(потом во время куплета играется так):
G-----4--------------|
D--------0--2--4-----|
Am C
Это больше,чем мое сердце.Это страшнее прыжка с крыши.
G F Em
Это громче вопля бешенного,но гораздо тише писка забитой мыши.
Это то, что каждый всю жизнь ищет:находит,теряет,находит вновь.
Это то,что (белый в борьбе)(?)со злобным оскалом по свету рыщет.
Я говорю тебе про любовь. ПА-ПА-ПА-ПА...
Она сама по себе невесома.Она легче,чем твои мысли,
 
 
Am F C G
Am
Я разрушил все, что построил сам
F
И весь мой мозг в сетке маленьких ран
C
Мой мозг уже умер и дряблую плоть
G
 
 
вся песня: Cm A# G#
Cm
Мне нужен враг, чтоб обрести покой.
Чтоб все бессмысленное стало объяснимо,
G#
Чтобы роняло искры за моей спиной
G
Пожара ненависть черное огниво.
 
 
Intro: Hm A(V) } X4 Hm G A(V)
 
Hm A Hm A
Я нaчинaю ycтaвaть oт тecнoты и дpyзeй
Hm G A
Я нaчинaю ycтaвaть oт пopoшкoв и блядeй
Oт пpизнaний в любви c нaбитым пищeю pтoм
Я нaчинaю ycтaвaть и жить eдинcтвeнным днeм
 
 
Am C## C##-В этом случае ставится
Не осталось ни сил, ни ощущения боли нижний(септовый) С.
C E
Тоской изъедена душа, как личинками моли
Все катится в пропасть, причем уже не в первый раз
И равен нулю смысл дружеских фраз
Все кому-то подарено, потеряно, продано
И сердце, кровью облитое, за ужином подано
 
Rhythm Solo:
F F Eb Db
E------------------------|
B|-6---4-2-6---4-2-4---2-4-2--1--2-4-|
G------------------------|
F
Не осталось ни сил, ни ощущения боли,
Тоской изъедена душа, как личинками моли,
 
Em
Пообещай мне, что будешь ждать,
Что сердцу веры не дашь устать,
Что не позволишь жадности смертей
Добраться до моих костей.
 
Dm F Em
Не умоляй меня остаться,
 
Asus2 Fsus2 Gsus2
E|-------------------------|----------------------|----------------------|
H|--------0--------0-------|----------------------|----------------------|
G|-------------------------|----------------0-----|----------------2-----|
D|-----2-----2----------2--|----------------------|-------------0-----0--|
A|--0-----------0----------|-------------3-----3--|----------------------|
E|-------------------------|
 
Intro и пpoигpыши: Em Hm Em Hm C A C F# G
 
Em
вce бyдeт нe тaк,
Hm
Кaк xoтeлocь бы мнe
Em
И лeгкий oзнoб
 
G(III)
Cтaнoвитcя cтpaшнo гoд oт гoдa cильнeй,
Em(VII) H(VII)
Ecли вxoдит в пpивычкy тepять cтapыx дpyзeй.
И xoчeтcя плaкaть дaжe нe плaкaть a выть
Ты пoнимaeшь чтo нe в cилax ничeгo измeнить
Тeбя нe тpoгaют yжe чyжиe cлeзы и бoль
Тeбe нe нaдo ничeгo ты зaнят тoлькo coбoй
 
Вступление:
E ||-0-0-0-0-0-----3-3-3-3-------5-5-5-5-5----------0-0-0-|
Em G
Как странно, я умираю весной
A
Под шорох растущей травы
Мое время уносят к дали морской
Впитавшие грязь ручьи
 
Вступление: G||---2-3-|-------3-|---2-3-|-----3----| \
D||--0----|----0-3--|--0----|--1-3-3-1-| \
A||-------|-1-3-----|-------|----------| / 8 раз
E||-3-----|---------|-3-----|-4--------| /
Am F
Она живет в ноябре,
C E
С выходящим на север окном.
 
Intro: A H
A C G
A H
Ольга! Едет на юг
A C G
Поезд уходит к морю
Ее саквояж разлук
Наполнен тяжелой душою
 
 
Вступление: C#m A C#m A C#m A F# D C#m A F# D
C#m A
Ольга едет на юг
C#m A
Поезд уходит к морю
C#m A
Ее саквояж раздут
C#m A C#m A F# D C#m A F# D
 
 
Играть в течекние всей песни
G------------------4^5---|
D|--------4-5------------4-5---------|
A---------2--------------|
E|--0--------------0-----------------|
Две подруги рука об руку,
Одна без другой никогда не бывает.
Два совершенно разных облика -
вступление и куплет :
------------------------------------
-------4-------------4--------------
-------------6-6----------6-6--6/8--
------------------------------------
------------------------------------
------------------------------------
проигрыш :
 
Am (C)
Am(5)
Gm
[e-------5-5-5----------5-5-5-
H-------5-5-5----------5-5-5-
G-------5-5-5----------5-5-5-
D-----7-7-7-7------7---7-7-7-
A---7------------7---7-------
 
Я возьму порошок cвоих снов
И высыплю в ложку дождя
(bass)H A
И нагрею огнем твоих слов
G
До кипенья раствор доведя
H A
Через вату случайных встреч
 
A5 D#5
Дождь и я весь на хуй промок,
D5 C5
Я вышел из дома, все дальше порог.
A5 D#5
За которым я оставил сам себя,
D5 C5
И кто-то другой уводит в ночь меня.
 
 
Hm A# Hm A# (x4)
Медуза тает, о берег жжется
Живая ткань водицей льется
Hm
Кровь невидимка из раны хлещет
A#
Скользя по каменным зигзагам трещин
Hm
 
 
Intro: Bm Am
Bm Am
Им пo нecкoлькo лeт, oни вмecтe дaвнo
Bm Am
У ниx глaвныe poли в этoм cтpaннoм кинo
Oнa жpeт eгo дeньги, зa тo чтo гpeeт кpoвaть
И пo cцeнapию xoчeт eгo yдepжaть
Em(7) Am
 
 
Играть этот рифф на протяжении всей песни.
G---------|
D|-------0----0-------|
A|-----5----6---6-5---|
E|--3-----------------|
Я был горд, больше чем надо,
И был слабее, чем объстоятельства.
Я сам вручал себе любые награды,
Cm Fm7
Ты мои слёзы, ты моё сердце,
A# D#
Ты частичка тепла, никуда мне не деться.
G# Fm
Моя жизнь только ты, от тебя она зависит,
Fm6/D G
И если ты уйдёшь, на волоске она повиснет.
Бас на 6-ой струне --6--2--4--1--
Bm
Она делает меня прозрачным,
F#
Таким же, как была сама
G#
Она делает меня прозрачным,
F
 
G Am
Мой город тонет в печали - я погиб час назад
G Am
Его стены рыдали, смотря на алый закат
Его узкое небо стало ближе к земле
И крупинками снега, прикоснулось ко мне.
Словами легче свинца, мощным выстрелом в грудь
Бесконечность кольца ты смогла разомкнуть
 
Вступление
E--------------------
B--------------------
G--------------------
D--------------------
A---10---10----10-10-
E--8--88---8--8--8---
--(...Дамы и господа Мишины Дельфины...)--
F Am
Скажите ей, что я ушел,
Dm C
И что не смог ее дождаться.
F Am
Лишь октября зажег костер,
Dm C
Чтобы хоть как-то попрощаться.
 
Пpипeв в тoй жe тoнaльнocти, чтo и y Дeльфинa.
 
[E--7-6--6---6-6---4---4--4-4-5--5---5-5--5-5--5-5------------
B--7-6--6---6-6---4---4--4-4-7--7---7-7--7-7--7-7------------
G--9-8--8---8-8---6---6--6-6-7--7---7-7--7-7--7-7------------
D--9-8--8---8-8---6---6--6-6-5--5---5-5--5-5--5-5------------
A--7-6--6---6-6---4---4--4-4-5--5---5-5--5-5--5-5------------
E--7-6--6---6-6---4---4--4-4-5--5---5-5--5-5--5-5------------
Мы с тобою - две капли разные
Одной воды... Слезы облака...
Dm Dm
Разобъемся об землю стразами
Dm Dm
Разлетимся вокруг да около
F F
Бесконечное вниз стремление
Am F
Я убиваю себя каплями бутылочной мечты
Dm E
И я наверное умру от алкогольной тоски
Плесень ностальгии сожрет меня дотла
И во всем этом ты виновата одна
И мне некуда идти И мне некого любить
И даже нет анаши чтобы косяк забить
 
A B G(3) A B
Это я уйду рано,меня торопит небо,и кажется так мало,и даже ни где
G(3)итд
не был,успею возьму больше,чтоб утащить с собою,
вот только бы по дольше не проростать травою,ко мне придет собака в молочно-белой шкуре,
и разрозится драка сильнее ветра бури, мое худое тело она порвет клыками, я дрался, я был смелый,со слабыми руками.
E F E F E
ПР: Я вернусь,я верну
 
 
Intro, Verse, Chorus:
G----------------|
D----------------|
A|--3-3--3-------3-3--3---7--|
E|---------5------------5----|
Два готовых действовать тела,
Два взгляда смотрящих в упор.
Зубы лезвия цвета мела,
Все это играется на пятой струне
5/ --15--14--12--14-12-14---15--12--14--14-12-14---15--12--14--14-12-14---
15--12--14--14-12-14---15--12--14--14-12-14---15--14--12--14-12-14-----
17--15--14--15-14-15---17--15--14-15-14-15-------------------
Я без тебя умру
Просто закрою глаза
И только мне одному
Достанутся небеса
 
Am F
e----------------------|
B|--------1------------------------|
G|------2----2------------2--------|
D|----2--------3--------3----3-----|
A|--0-----------------3--------3---|
E-------1--------------|
Я могу стать всем если только захочу
 
C E
Я ухожу в небытие я ухожу в никуда
Am G
Моя печаль для меня почему-то легка
C E
И мне не хочется плакать мне не хочется ждать
Am F
И больше я не смогу ничего потерять
 
 
C#m C#sus2
Ты холодна, как снег как лед
C#m C#m7 C#m6
Ты холодна, от тебя меня рвет
A A7
Ты холодна, как ночная пустота
A A7
Ты холодна...
 
 
A A#
С нами играет ветер
A A#
Ты и я - дети
A A#
И льет в висок капля
A G A#
Дождь - серая цапля
 
HM A G(|||) FM# HM A
Мы слышим запах травы, Мы пьем облака, Наши души - цветы,
G FM# HM A G FM#
Наша память - река, Нас невозможно узнать, Мы носим лица людей,
HM A G FM#
Мы для того чтобы ждать, Один из ста тысяч дней
HM A G FM# HM A
Кто ты, кто ты - сколько в тебе тишины, Светлой печали сот
 
 
D Am C
Вот и все вот и кончился солнечный свет
D Am
На манжеты ложится белой запанкой снег
Превращаясь в брилиант при ночном фонаре
Как богата ты осень как добра ты ко мне
Как добра ты на смерть, как добра ты на боль
Ты для каждого видишь его главную роль
 
Рекомендуемый рисунок: Бой(вниз-вниз-вниз-вниз-вверх-вверх-вниз-вниз-вниз)
Вся песня на аккорды: G#m-E-D#7-F#-D#7
Мир умирает, люди похожи на тлю
Пыль на телеэкране важней того, что я смотрю
Любовь -- прокисшие щи, мечта -- помойное ведро
И ожидание чуда тянет камнем на дно
Здесь вообщем-то нечего делать, кроме того чтобы жрать
Здесь страшно быть убитым, но страшней убивать
 
Intro:
G|-----------------------|
D|-----------------------|
A|--------10-10----------|
E|--12-12--------11--10--|
Verse:
G|--------------------|
D|--------------------|
E,A,D,G,B,E
{{{Guitar}}}
intro nh=NATURAL HARMONIC
nh nh nh
E--12----------
B-----12-------
G--------12----
D--------------
 
С
Сны растворяют сознание жизни
E
Реальностью стал бешеный миг
Am
В котором мои чувства лишаются смысла
Dm
Блокируя память о том что я жив