Аккорды к песням для гитары

«Девятый район» аккорды

Вступление: Em | G | Hm | D Em
Em
Ты проснулась на столе
G
В одном стареньком кафе,
Hm
Без прически, без штанов
D Em
 
 
C G
Как жаль что все это снится
Am Em
Когда-то нужно проститься
C Hm
Когда-то нужно проститься
Em
Навсегда.
 
 
Вступление (сыграть 4 раза):
C Em
e|-0---0-------------0---0-------5-3------------------------------|
H|-------3-3-1-------------3-3-1----------------------------------|
C Am
Ты мне скажи - зачем ты врешь,
Em
О том что очень замечательно живешь.
 
Вступление: Em | Em | Em | Em
Em | Am | Em | Em
Am | Em
Em
Стюардессы, проводницы -
Am
Вечно мне родные лица -
Em
 
 
Вступление (сыграть дважды):
Em
e|-----0----0-0--0-| \
H|-----0----0-0--0-| \ 4
G|-----------------| / раза.
D|-2-------2-2-2---| /
Hm
e|-----2----2-2--2-| \
 
Вступление:
Am | D | Em | Em > 4 раза.
Am
Где же ты всю ночь была?
Em
С кем ты ласковой смогла?
С кем же ты не раз, не два
На кровати у окна?
 
 
Вступление:
Am | C | D | Em > 3 раза.
Am | Am
Am
Как же вот так случилось,
Звезды не так сложились,
C
Ветер подул издалека.
 
 
Вступление:
G
A|-------------2-0-| \ 8
E|-3-3---3---3-----| / раз.
G Am
Он вышел из дома в двенадцать часов
Hm Em
Слегка пьяный, выбрит до синевы.
 
Em
Я не знаю, что сказать тебе сейчас,
G
Ведь ты проснулась.
Am
Просигналил я вчера тебе лишь раз,
Em
Ты оглянулась.
 
 
Вступление:
D Hm
e|-2---0----------------0--2--0--------------------------------------|
H|-------3-----------3-----------3--3p0------------------------------|
G|-------------------------------------------------------------------|
D Hm
e|-2---0----------------0--2--0--------------------------------------|
H|-------3-----------3-----------3--0--------------------------------|
 
Вступление:
e|-------15----17----------------15----12----------------15----17----15-12-------12----| > 2 раза.
e|-12----15----17----15-12----12-15----17----15----12----15----17----15-12-------12----| > 2 раза.
e|-15----12----15----12----15----12----15-17----17-| > 8 раз.
Am Em
Эй, ты о плохом не думай.
G
Не бойся отдохнуть со мной,
 
Вступление:
Em | Em
Em | Hm | Am Hm | Em > 2 раза.
Em Hm
Ты вся такая из себя,
Am Hm Em
Смотри, дождешься у меня.
Ты глазки строишь каждый день,
 
 
Em
Шагом - марш! Песню - запе-вай!
C
- Эх, студенты, вашу мать!
Hm Em
Хватит лекции читать.
Приказ понятен? Напрямик!
- Есть, полковник Дубовик!
 
 
Вступление:
Em | Em | Em | D > 8 раз.
Em
Она не актриса, не кинозвезда,
Она не любовница и не жена,
Hm
Она теряет рассудок при слове "кровать",
Em
 
 
Вступление (сыграть дважды):
Em
e|-----------7-5---3--(3)--------------------7-5---3--(3)------3-5-|
H|----------8------------5-0----------------8------------5-0-------|
Am Em
e|-5h7-----------------3-5-5h7-10----3p0---------------------------|
H|-----------------------------------------------------------------|
Em
 
Вступление: Am | C | Dm E | E7 Am > 2 раза.
Am C
Ночь закрывает ресторан, такси уносит по домам,
Dm E E7 Am
Все просадил, я на мели, ночь обесценила рубли.
Среди машин, домов, дорог найдется старый корешок,
С кем можно вспомнить о былом, хмель силы даст на разговор.
Я помню спорили давно о том, кто сильный, кто дерьмо,
 
 
Проигрыш: /E7 Am E H7 Am/
Am
Верный Ил шесят второй
C
Распрощается с землей.
Через двадцать шесть минут
Am
Пассажиры все уснут...
 
 
Em
Мы с тобою взяли два билета далеко
Пили, ели, веселились, все в каюте нелегко
G Hm Em
Наш корабль в полный ход, и мы пошли в поход
Так красиво, небо, звезды, полная луна
Просадили все в рулетку, мы гуляли до утра
Мы знакомы полчаса, уже люблю тебя
 
 
Am Em
Свой старенький плащ небрежно брось на кровать.
G Am
Я знаю, веришь нет, он нам не будет мешать.
А в песнях моих ты не черта не поймешь,
Ты ж не такая, как я, ты не врешь.
Любовь - это пена, это пыль на стене,
Это крыша и стены, это рай в шалаше.
 
 
Вступление (сыграть дважды):
Em Hm
e|---3-2-0---0---0-----0---0---------3-2-0------------------------|
H|-0-------3---------3-------------0-------3-0---0-----0---0------|
G|---------------------------------------------------2------------|
Am Hm
e|---5-3-2-0-3---3---2-3---0-----------------2-2-0-2---2-3-2------|
H|-0--------------------------------------------------------------|<
 
C G Dm Am
Ночью ехал я, был туман стеной
Я давил на газ, словно сам не свой
Я летел к тебе, чтобы сказать: "прощай!"
Закипела кровь, ты уж не серчай
И увидев свет за двенадцать верст
Свет в твоей избе, и мотор понес
Как паршивый конь, отгонял я грусть
 
 
Fm Cm
Ты расскажи мне как живешь и где твой дом
Bm Cm Fm
А разговор о нас оставим на потом
Ты расскажи у нас есть время до утра
У нас есть ночь да без нее ж никак нельзя
Ab Cm
Я знаю этой ночью будет дождь
 
 
Вступление (сыграть 4 раза):
Db
e|----------4--------------------9--8--6--4--------------6----------------------------|
H|----6--6-----6-----------6--6--------------6-----6--6-----6-------------------------|
G|------------------------------------------------------------------------------------|
Gb Ab Bm
e|----9--8--11-9--8--6--4-----8--6--9--8--6--4--4h6------6----------------------------|
H|-------------------------