Аккорды к песням для гитары

«Из фильмов и мультфильмов» аккорды

C
Закройте вашу книжку, допейте вашу чашку
Dm - A
Дожуйте ваш дежурный бутерброд
Dm C
Снимите и продайте последнюю рубашку
G C
И купите билет на пароход
 
 
Am
Нет, я не плачу, и не рыдаю,
A7
На все вопросы я открыто отвечаю,
Dm G C F
Что наша жизнь - игра, и кто ж тому виной,
D7 E7
Что я увлекся этою игрой.
 
 
Am E Am
Молчите, молчите, прошу, не надо слов
Dm G7 C - A
Поверьте бродяге и поэту
Dm Am
На свете есть город моих счастливых снов
B E
Не говорите, что его нету.
 
 
Am E7 Am
Странствуя по свету словно птица
A7 Dm
Преодолевая жизни путь,
G C F
Изредка, однажды, иногда, как говорится
H E7
Я б хотел забыться и уснуть
 
 
C7 F7
Раньше люди хлопали ушами
C7 F7
Еле-еле двигали ногами
Am F
А теперь они танцуют ширли
G C - G
День и ночь.
 
 
1----------------------------------------------------------------------
2-----------------------------------------1-1-1------------ 3-3-1------
3---------------------------------0-0-0-0-------2-3-3---2-3-------3-2--
4----0-0-2-3-5-5-3-5-7----0-0-0-0--------------------------------------
5--0--------------------0----------------------------------------------
6----------------------------------------------------------------------
 
1-------------------------
 
Вступление: C | F | C | G } 2 раза
C F
В центре города большого,
C G
Где травинки не растет,
C D7
Жил поэт, волшебник слова,
G7
 
 
Am
Вновь ребят зовет дорога –
Am
До родимого порога
A7 Dm
Девяносто суток впереди.
Dm G
Ни цветов, ни хлеба с солью,
 
Leaves from the vine falling so slow like fragile tiny shells drifting in the foam
E[------------------------------------------------------------------------------------------------------------------------------]
B[------------------------------------------------------------------------------------------------------------------------------]
G[-9--9-7-6--------------------9-9-7-6---------------6----6b--------------------------
 
G
In the jungle
C
The quiet jungle
G D
The lion sleeps tonight
In the jungle
The mighty jungle
 
Вступление: Cm Fm D# D7 - 2p.
Cm
I'll set my sail,
Fm
Fly the wind it will take me
D# D7
Back to my home, sweet home
Cm
 
[e----------------------------------------------------
B---10-----8--------8-(p)7---10-10--(p)7-----8-8-7---
G------9-------7-7--9-(p)7----9--9--(p)7-----9-7-7---
D-7------7---7-------------7--------------7----------
A----------------------------------------------------
E----------------------------------------------------]
 
Then it goes into the A5 riff:
 
исполняет (типа) Антонио Бандерас (Antonio Banderos)
фильм Desperados (Отчаянные) часть 1.
в гл. роли Ант БандУрас
в самом начале фильма показана сцена с тремя гитарами...
даю чего есть, за вменяемость и верность не ручаюсь,
что написано - не смотрел.
пробуй!
Original Version
 
 
Каподастр на 3-м ладу
Вступление:
F E Am Gm F E Am
F+7
This is Garnet.
E7
Back together.
Am Gsus4 C7 F+7
 
 
[E--------------------------------------------------------------------
B------------8---------------------10--------------------------------
G------9-7-9---9~~~----------9-7-9----9~~~---------------------------
D----7---------------------7-----------------------------------------
A--------------------------------------------------------------------
E--------------------------------------------------------------------
 
-------------------------------------
 
Am
Girl,
1----------------
2----------------
3|------3----2----0----------
4|-0-------------------------
5----------------
6----------------
 
Аккорды He's a Pirate (Пираты Карибского моря)
Первая чать 2раза :
Dm Bb Am Dm
Bb F C Dm
Dm Gm Am Dm
Bb Dm A (A7)
Куплет :
A , Dm C Bb A , Gm A
 
He's A Pirate
Дорожка 1
E S S S S E S S S S E S S S S E S S S S E S S S S E S S S S
E||------------------------|------------------------|------------------------|
B||------------------------|------------------------|------------------------|
G||------------------------|------------------------|------------------------|
D||--0--0-0-0-0-0--0-0-0-0-|--0--0-0-0-0-0--0-0-0-0-|--0--0-0-0-0-0--0-0-0-0-|
A||--------
Part 1
e-------------------------------------|
b---3h6p3-----------------------------|
g---------5--2h5p2----2--2-5p0--------|
d------------------5--0h3-----0--3-2--|
a---------------------0---------------|
d---0-----2--3-----5------------------|
e--10h13p10---------------------------|
 
Intro: D D G A
 
D G A
Out the door just in time, head down the 405
D G A
Got to meet the new boss by 8am
D G A
The phone rings in the car, the wife is working hard,
 
 
[E -5-x7777-5555-888888x777------------]...
Песня из Ейс Вентура 1, там где он заташил женщину в постель...
Очень любят на нее каверы делать...
G C G D
In the jungle, the mighty jungle, the lion sleeps tonight.
G C G D
In the village, the peaceful village, the people sleep tonight.
G C G
Aweem away, aweem away, aweem away, aweem away, aweem away, aweem away,
 
[e-----------------3---------3------------
B---------3-1-0-----3-1-0-----3-1-0-1----
G-------0-------2---------2-----------2-- } repeat
D-0-0-0----------------------------------
A----------------------------------------
E----------------------------------------
e --------------------------------------------------
B ---------1-0--------------------------1-0-----3---
 
Вступление: F Dm7 A# C7 - 2p.
F Dm7
Earth angel, Earth angel
A# C7
Will you be mine?
F Dm7
My darling dear
A# C7
 
 
This is the theme song to the T.V. show MASH.
Here it is:
-------------------------------5--3--2--3--2--3--2--0---
--------3--2---------3--2-------------------------------
------4------------4------------------------------------
----4------------4--------------------------------------
--2------------2----------------------------------------
--------------------------------------------------------
 
Вообще-то там соло-партии всё время разные инструменты играют, но
я их все под гитарку загнал. Там всего 3 соло-партии под 3 основ-
ных инструмента. Вот они:
 
1 партия (повторяется 2 раза):
[e---------------------------0---3---0---------------------------
B---0-0-3-0-5-0-7-5-----3-3---3---3---3---------1---3---5-3-----
G-------------------------------------------5-5---5---5---------
C G F G
(1)Every night in my dreams I see you, I feel you,
That is how I know you go on
Far across the distance and spaces between us
You have come to show you go on
C G F G
Сhours: Near, far, wherever you are
Am G F
 
 
C G F G
Every night in my dreams I see you, I feel you,
That is how I know you go on
Far across the distance and spaces between us
You have come to show you go on
(chours) C G F G
Near, far, wherever you are
Am G F
 
 
NO CAPO
G 320033
Bm x24432
C x32010
D xx0232
[Verse I]
G
Why Do some things stay the same,
 
 
Intro: G | Em | G | Em
G Em
I've heard there was a secret chord
G Em
That David played and it pleased the Lord,
C D G D
But you don't really care for music Do you?
G C D
 
 
G                         Bb
Красивой сказке ты не верь,
C                                 D
Что всех любовь сильней
G                          Bb
Судьба однажды стукнет в дверь
C                          D
И друг уйдет за ней..
 
 
1: ---------------------------------------------- 2: -11---11---11---9----------------------------- 3: ---10---10--------10~---11---11--11---13-10--- 4: --------------------------13---13-------------...
 
Am
Взгляни вокруг, огланись назад
G
Духи с тобою связаться хотят,
C G
Мир не таков, каким кажется он,
Dm
Чудесами каждый окружён.
 
 
[e-----------------3---------3------------
B---------3-1-0-----3-1-0-----3-1-0-1----
G-------0-------2---------2-----------2-- } repeat
D-0-0-0----------------------------------
A----------------------------------------
E----------------------------------------
e --------------------------------------------------
B ---------1-0--------------------------1-0-----3---
 
Каподастр на 3-м ладу
D#
Everybody told me Gem stuff's dangerous
Cm
I guess I didn't believe it
A# G#+7 Fm
Until now, Dad always seemed apprehensive
G#+7 Fm
 
 
[Steven:]
F(V) A(V)
If you're evil and you're on the rise,
A#(VI) C(VIII) F(V)
you can count on the four of us taking you down,
A(V)
cause we're good and evil never beats us,
A#(VI) C(VIII)
 
 
A# Gm
Can't you see it in our eyes
D# D#7
We're the one we're the ONE TWO THREE FOUR
A# Gm D# F
We're not like the other guys (we're not like anybody)
D#
By the way don't Go back in time
 
 
This is the theme song to the T.V. show MASH.
Here it is:
 
-------------------------------5--3--2--3--2--3--2--0---
--------3--2---------3--2-------------------------------
------4------------4------------------------------------
----4------------4--------------------------------------
--2------------2----------------------------------------
 
[e---------------------------1-0-----3------5-7-8-8---5-3----
b---------1-0-------------3-----3------3-----------------3--
g-------2-----2---------2-----------------------------------
D-----2---------------0-------------------------------------
A---0---------------0---------------------------------------
E-0---------------0-----------------------------------------
 
Am Dm Am Dm
 
Am
Mare bella donna,
F
Che un bel canzone,
Dm E7
Sai, che ti amo, sempre amo.
Am
Donna bella mare,
 
[E--------------------------------------------------------------------
B------------8---------------------10--------------------------------
G------9-7-9---9~~~----------9-7-9----9~~~---------------------------
D----7---------------------7-----------------------------------------
A--------------------------------------------------------------------
E--------------------------------------------------------------------
-------------------------------------------------
 
Intro:
C C* C C* C C* E
F F F* F F F* C
F Fm C Am
Dm G C
S(C)ee the pyramids al(E)ong the Nile
(F)Watch the sun rise from the tr(C)opic isle
(F)Just rem(Fm)ember darling (C)all the wh(Am)ile
 
 
Cm Cm/B Cm/A# Cm/A
Одну простую сказку,
Fm/Ab G7
А может, и не сказку,
Cm Cm/B Cm/A# Cm/A
А может, не простую
Fm6 G7/E
Хотим вам рассказать.
 
 
Dm Gm A7
Одну простую сказку, а может, и не сказку,
Dm Gm6 A7
А может, не простую хотим вам рассказать.
B C7 F Gm A7 Dm
Ее мы помним с детства, а может, и не с детства,
B C7 F Gm7 A7 D
А может, и не помним, но будем вспоминать.
 
 
Gm Eb D7 Gm
А напоследок я скажу.
*Cm6 D7 Gm
А напоследок я скажу:
G7 Cm
Прощай, любить не обязуйся.
F7 B
С ума схожу.
 
Dm Am Dm B7 E7 Am
Am Dm
Мохнатый шмель - на душистый хмель,
G7 C A7/C#
Цапля серая - в камыши,
Dm Dm/C Dm/H Am
А цыганская дочь - за любимым в ночь,
H7 E7 3 E7
 
Gm A7 Dm
Огней так много золотых
Gm7 C7 F F7 D7
На улицах Саратова,
Gm C7 Dm
Парней так много холостых,
Gm A7 Dm
А я люблю женатого.
 
 
G#m
Я гляжу в горизонт -
C#m
Он здесь в Азии сказочно синий,
D#
Будто кто-то нарочно
G#m
Нарядил его в ультрамарин.
 
 
G#m
Я гляжу в горизонт -
C#m
Он здесь в Азии сказочно синий,
D#
Будто кто-то нарочно
G#m
Нарядил его в ультрамарин.
 
 
D Dsus2
I know, you see
D Dsus2
Somehow the world will change for me
D Dsus2 D Dsus2
And be so wonderful
D Dsus2
Live life, breathe air
 
C
Не сразу все устроилось,
Em A7
Москва не сразу строилась.
Dm E7 Am
Москва слезам не верила,
Dm G7 C
А верила любви.
 
 
Hm
Есть на свете цветок алый алый,
A D G A D
В сердце пламенем он - как зоря.
Hm
Самый сказочный и небывалый,
A D G A D
Он мечтою зовется не зря.
 
 
Для удобства: тональность "- 3"
D#
За окном уже сугробы,
A#
Снеговик нас ждет давно,
G#
Но не вижусь я с тобой теперь,
Cm
 
 
6/8
Am Dm E
Арго! Да пошлет нам небо путь с луной и
Am Dm E
звездами,
Am Dm G C
Арго! Если сникнет парус мы ударим веслами,
Dm G C Am
 
 
Fm
Невесте графа де Ла Фер
Всего шестнадцать лет.
C#
Таких изысканных манер
Bbm C
Во всем Провансе нет.
Ab
 
 
Em Am
Hочь и тишина, данная навек.
H7 Em
Дождь, а может быть падает снег.
Am H7
Все pавно, бесконечной надеждой согpет,
Am H7
Я вдали вижy гоpод, котоpого нет:
 
 
G
In the jungle
C
The quiet jungle
G D
The lion sleeps tonight
In the jungle
The mighty jungle
 
 
Am Dm
(1)Hад pекой над pечкою pос кудpявый клен
G C
В белую беpезу был тот клен влюблен
Am Dm
И когда над pечкою ветеp затихал
E Am
Он беpезе эту песню напевал
 
G C G D D7 D6 G
(1)С рождения Бобби пай-мальчиком был, (молодец)
G C G
Имел Бобби хобби - он деньги любил, (хороший мальчик)
G D D7 D6 G
Любил и копил (что было дальше?)
 
G H7 Em
 
 
сл.М.Танича
Dm E7
Кто ошибется
A7 Dm
Кто угадает
Dm7 Gm
Разное счастье
C7 F
 
 
С.Никитин
Собака бывает кусачей Hm F#7
Только от жизни собачей, F#7 Hm
Только от жизни, от жизни собачей, D Em
Собака бывает кусачей. Hm F#7 Hm
Собака хватает зубами за пятку, Hm E#7
Собака съедает гражданку лошадку, F#7 Hm
И с ней гражданина кота, C#7 F#7
 
 
Предоставляю вниманию начинающих примитивную версию песенки
из мультика "Следствие ведут колобки" в табах. Пальцы следует
распологать в соответствии с указанными сверху аккордами.
Н7(20212Х), Еm (000220), Am (012200), D7 (21200X), G+7 (200023)
Н7 Em Am
E ---------------3-----------3-|
B -0---0-1-0---0---|-0---0---0---0---|-0---0-1-0---0---|
G ---3-------3-----|-0---0---0---0---|-0-3-0---0-3-0---|
 
Проигрыш C A# C D# (Играть быстро, желательно квинтами)
C Em
Ничего на свете лучше нету,
Dm G
Чем бродить друзьям по белу свету.
C Em Am
Тем, кто дружен, не страшны тревоги.
Dm G C Am
 
 
C Em
Ничего на свете лучше нету
Dm G
Чем бродить друзьям по белу свету
Em Am
Тем, кто дружен, не страшны тревоги
Dm G C Am
Нам любые дороги дороооги.
 
 
Am
Говорят, мы бяки-буки,
Dm
Как выносит нас земля?
G
Дайте что ли карты в руки
C
Погадать на короля.
 
 
C F G C FC
Почетна и завидна наша роль
C Dm E
Не может без охранников король
Am A D
Когда идем - дрожит кругом земля.
G C
Всегда мы подле, подле короля.
 
 
C Am F G
(1)Куда ты тропинка меня привела,
Без милой принцессы мне жизнь не мила.
Ах если б, ах если б милый король,
Мне к сердцу принцессы открыл бы пароль.
Припев:
Ведь я боюсь никого, ничего,
Я подвиг готов совершить для него,
 
 
Am E Am
Пусть нету ни кола и не двора.
Dm G7 C A7
Зато не платят королю налоги
Dm E7 F
Работники ножа и топора -
Dm E7 Am
Романтики с большой дороги.
 
C G Am C
Луч солнца золотого туч скрыла пелена.
C G Am E7
И между нами снова вдруг выросла стена.
 
F G
Ла-ла-ла, ла-ла-ла-ла.
C F G7
 
[E ---------------------------------------------------------------------------
H ---------------------------------------------------------------------------
G ---------------------------------------------------------------------------
D ---7-5-8-7--7--5-7-8-7------------5---------------------------------------
A -5-----------8---------3----5-7-8---8-5---5-8-7-5-3-5----------------------
E ---------------------------------------------------------------------------
E
 
Проигрыш: Am B C E
 
Am E7
Весь покрытый зеленью, абсолютно весь
Am
Остров невезения в океане есть.
A7 Dm
Остров невезения в океане есть.
 
 
Исполняет: Ю.Никулин
 
Am *Dm7 G7 C
В темно-синем лесу, где трепещут осины,
F B7 H7 E7
Где с дубов-колдунов опадает листва,
Am *Dm7 G7 C
На поляне траву зайцы в полночь косили
 
C
(1)Кто доброй сказкой входит в дом?
Dm Dm G
Кто с детства каждому знаком?
Am
Кто не ученый, не поэт,
F
А покорил весь белый свет,
 
 
о жадинах, хвастунах и дураках.
 
Am
Лап то бу ди дубудай, лап то бу ди дубудай...
A7 Dm
лап то бу ди дубуда дай, лай лай лай лалалалалала...
*Dm6 Am
Лап то бу ди дубудай, лап то бу ди дубудай...
 
 
Dm
Не прячьте ваши денежки
A7 Dm
По банкам и углам,
Dm
Несите ваши денежки -
A7 Dm
Иначе быть беде
 
 
Am Dm
(1)В день когда исполнилось мне шестнадцать лет,
E Am
Подарила мама мне вязаный жакет,
Gm A7 Dm
И куда-то в сторону отвела глаза,
Am B7 E Am
Вдруг пришла посылка - это от отца.
 
 
Em
Бургундия, Нормандия,
H
Шампань или Прованс -
C G H
Куда бы ни унес вас верный конь,
Am H
При вас мой меч фамильный
 
 
G
В каждом маленьком ребенке
D G
И мальчишке и девчонке
C G
Есть по двести грамм взрывчатки
D
Или даже полкило!
 
 
C C7 F
Вот она, перед вами, коробка с карандашами,
Am Dm G
В нее совершенно свободно помещается что угодно.
C Dm G
В коробке с карандашами горы и океаны,
Am Dm G
Гномы и великаны, кот с большими усами.
 
1---4-4-2-4-0--------4-4-2-4-7--7-----5-5-4-2-0---4-4-2-4-0-
2-0-----------0-0--0--------------2-2-----------0-----------
(1)В лесу родилась елочка,
В лесу она росла,
Зимой и летом стройная, \ 2
Зеленая была. / раза
(2)Метель ей пела песенку:
"Спи, елочка, бай-бай!"
 
Am Dm
1. В лесу родилась елочка,
E Am E
В лесу она росла.
Am Dm
Зимой и летом стройная
G C
Зеленая была.
 
 
Вступление:
C G C C
|-------0-----------3-----------0-----------0-----|
|-----1---1-------0---0-------1---1-------1---1---|
|---0-------0---0-------0---0-------0---0-------0-|
--------------------------2-----------|
|-3-----------------------3-----------------------|
--3-----------------------------------|
 
Am Dm E7 Am
В небі канареєчка літає
Dm G7 C
І співає прямо в горизонт,
A7 Dm E7 F
А ми підем вип'єм, погуляєм,
Dm E7 Am
В цьому все життя і весь наш резон!
 
 
Проигрыш:
F#m E/H | Hm F#m 2 раза
F#m E | Hm F#m несколько раз
F#m E Hm F#m
В руках автомат -потому что солдат
Блестят ордена - потому что война
Вернулся домой - потому что герой
F#m E Hm F#m
 
 
Em Am6
Слышишь, тревожные дуют ветра?
Am H7 Em
Нам расставаться настала пора.
Em7 Am7
Кружится, кружится пестрый лесок,
D7 G
Кружится, кружится старый вальсок.
 
Рекомендуемый рисунок:
Бой-шестёрка (вниз-вниз-вверх-вверх-вниз-вверх)
 
A
Тут у нас столпотворенье,
H
Это я столпотворю,
D
 
 
Am E7 Am
Ваше благородие, госпожа Разлука,
C G7 C
Мы с тобой родня давно - вот какая штука.
F F/E Dm Dm/C G7 C A7
Письмецо в конверте погоди, не рви!
Dm Am E7 Am
Не везет мне в смерти - повезет в любви.
 
 
Ваше Благородие (к/ф "Белое солнце пустыни")
Вступление:
Am E C G
e---------1-0-0-------------------0-0-0-0-5-3-3---3-3-3-1-1-0-----
h-------1----------------0--------1---------------0---------------
g-----2----------------1----------0---------------0---------------
d---2----------------2------------2---------------0---------------
a-0----------------2-------3-2-0--3---------------2---------------
 
Am E Am
(1)Ваше благородие, госпожа Удача
С G
Для кого ты добрая
C
Для кого иначе
Dm
Девять граммов в сердце
Dm Bb C Dm Bb C
Dm C
Na szlak moich blizn poprowadź palec
Dm C Gm A7
By nasze drogi spleść gwiazdom na przekór
Bb Gm A
Otwórz te rany, a potem zalecz
Dm
 
 
Em H7
Когда весна придет, не знаю,
Em D G E7
Пройдут дожди, сойдут снега.
Am Em
Hо ты мне, улица родная,
A D G E7 } 2 pаза
И а непогоду дорога. /
 
 
Am7 Em7
Кружит земля, как в детстве карусель,
Am7 Em7
А над землей кружат ветра потерь.
Am7 D G+7 G6
Ветра потерь, разлук, обид и зла...
F#m7-5 H7
Им нет числа...
 
 
Козлиха-мать:
Am G C
Ох, козлятушки, вы ребятушки,
Dm Am E Am
Остаетеся вы без матушки.
Am G C
В огород иду за капустою,
Dm Am E Am
 
 
Вот ты, вот я
Em G F# H7
Вот ты, вот я -
Em G F# H7
В прошлом дружная семья.
Em G F# C
Все, что было, вдруг уплыло -
Em G F# H7 Em G F# H7
 
 
ст. Евтушенко муз. Таривердиева
F#m|F#m|
F#m C#7
Со мною вот что происходит,
F#7 Hm7
Ко мне мой старый друг не ходит,
D/h E7/9 A D c#
А ходят в праздной суете,
 
 
Gm (III) D7
Со мною вот что проис|ходит,
G7 Cm(III)
Ко мне мой |старый друг не |ходит,
Cm7(III) A#7 D#7(III)
А |ходят в разной |суе|те
Cm(III) D7
Разнообразные не |те
 
 
Am C E
Всегда быть рядом не могут люди
Am C E
всегда быть вместе не могут люди
A7 Dm
Нельзя любви, земной любви пылать без конца
Dm G
Скажи зачем же тогда мы любим
 
 
A H7
Вы мной играете, я вижу,
E A
Смешна для вас любовь моя,
C D
Порою я вас ненавижу,
E A
На вас молюсь порою я...
 
Am *Fmaj7 - G7 *Cmaj7
Засыпает старый Зурбаган,
Am *Fmaj7 - G7 *Cmaj7
А за горизонтом ураган,
Dm
С грохотом и гомоном и гамом,
G C - C E Am
Путь свой начинает к Зурбагану.
 
Am Dm
Hoчь и тишинa, дaннaя нaвeк.
G C
Дoждь, a мoжeт быть пaдaeт cнeг.
Dm E
Вce paвнo, бecкoнeчнoй нaдeждoй coгpeт,
Dm E
Я вдaли вижy гopoд, кoтopoгo нeт:
 
 
Dm
Ежедневно меняется мода,
Am
Но покуда живет белый свет
Dm
У цыганки со старой колодой
G C
Хоть один да найдется клиент
 
 
Dm Gm
Как жизнь без весны,
A Dm B
Весна без листвы,
Gm
Листва без грозы,
A Dm D7
А гроза без молнии,
 
Вступление: DmBCDm
 
Dm
(1)В мой старый сад, ланфрен-ланфра.
Gm
Лети, моя голубка.
C7
Там сны висят, ланфрен-ланфра,
 
 
Am C
По воле рока так случилось?
A Dm
Иль это нрав у нас таков?
Am
Зачем троим скажи на милость
F E
Такое множесто врагов?
 
 
Песня исполняется в фильме два pаза, пеpвый pаз
все куплеты исполняются от мужского лица.
Гитаpа пеpестpаивается на пол тона ниже
(стpой Eb-Ab-Db-Gb-B-Eb). Аккоpды пpи этом ставятся
как обычно.
(1)ОHА
Am H7 Em C
Как жизнь без весны, весна без листвы,
 
 
Am Dm E Dm
(1)Где-то на белом свете, там где всегда мороз
Am Dm G C
Трутся спиной медведи о земную ось
Dm G C Am
Мимо плывут столетья, спят подо льдом моря
Am Dm E Am
Трутся об ось медведи, вертится земля
Am Dm E Am
Где-то на белом свете, там где всегда мороз
Am Dm G C
Трутся спиной медведи о земную ось
Dm G C Am
Мимо плывут столетья, спят подо льдом моря
Am Dm E Am
Трутся об ось медведи, вертится земля
 
Am Dm E Am
Где-то на белом свете, там где всегда мороз
Am Dm G C
Трутся спиной медведи о земную ось
Dm G C Am
Мимо плывут столетья, спят подо льдом моря
Am Dm E Am
Трутся об ось медведи, вертится земля
 
 
1|--------5---------------5-------------5---------3-----3-5--
2|--3-3-6----3-5-5--2-2-5----2-3--3-3-6----3-5-5----6-5------
3------------------------------------------------
4------------------------------------------------
5------------------------------------------------
6------------------------------------------------
1|-----7-10--7----------5-8--5----------5---------------5----
2|-8-8---------8-8--6-6--------6--3-3-6----3-5-5--2-2-5--2-3-
 
Стихи - М.Цветаева
Композитор - Петров А.
Em Am D G H
Вы, чьи широкие шинели напоминали паруса,
Em Am D
Чьи шпоры весело звенели и голоса,
H
и голоса,
 
 
Вступление: 1) ------------------------------------------------
2) ------------------------------------------1--3--
3) ---------------------------------------2--------
4) ------------------------------------------------
5) ------------------------------------------------
6) ------------------------------------------------
 
1) 0-----------------0-----------------------0-----
D F#m G D
Ах, утону я в Западной Двине
Bm F#m G D
Или погибну как-нибудь иначе
Am Em Am Em
Страна не зарыдает обо мне
G D
Hо обо мне товарищи заплачут
 
 
Вступление: F F7 C C | E7 Am
D F7 C C | G7 C
C Am
Мы не слыхивали сроду
D D7
Слова «нет» от милых дам,
G7
И в постель ныряли сходу,
 
 
Em C+7 *Em6 C+7 Em C+7 *Em6
Приходит день, приходит час, приходит миг, приходит срок
Cm F#7
И рвется связь.
Am F+7 *Am6 F+7 Am F+7 *Am6
Кипит гранит, пылает лед и легкий пух сбивает с ног.
Fm H
Что за напасть!
 
 
Dm B C Dm
Dm Dm7
В мой старый сад, ланфрен-ланфра.
Gm7
Лети, моя голубка.
Dm Dm7
Там сны висят, ланфрен-ланфра,
Gm7
 
 
Вариант 1.
Dm B C Dm
Dm
В мой старый сад, ланфрен-ланфра.
Gm
Лети, моя голубка.
C7
Там сны висят, ланфрен-ланфра,
 
 
Сл.Э.Успенского Муз.В.Шаинского
Am Dm
Медленно минуты уплывают в даль,
G C E7
Встречи с ними ты уже не жди.
Am Dm
И хотя нам прошлое немного жаль,
Am E7 Am
 
 
Вступление: Dm Dm/C Dm/B A
Dm Gm
(1)Hочь и тишина, данная навек,
C F Bbmaj7
Дождь, а может быть падает снег.
Gm A
Все равно бесконечно надеждой согрет,
Gm A
 
муз.Игорь Корнелюк/сл.Регина Лисиц
Аккорды:
Gm D5 F Esus4 Dm C
E-|--3----X----1----5(X)-----1----0--|-
B-|--3----3----1----5(X)-----3----1--|-
G-|--0----2----2----2(2)-----2----0--|-
D-|--0----0----3----2(2)-----0----2--|-
A-|--1----X----3----0(0)-----X----3--|-
 
муз. Т.Дренникова.
Am E7
Лунные поляны...
Am E7
Ночь, как день, светла...
A7 Dm
Спи, моя Светлана,
Dm E7
 
исп. гр.Любэ
Fm # Hm E
Война и на и най най най най на
A
Война и на и най най най най на
F#m
Серыми тучами небо затянуто
Hm
 
 
E F#m
Меня зовут юнцом безусым -
B7 G#m C#7
Мне это, право, это, право, все равно,
F#m E
Зато не величают трусом
B7 E
Давным-давно, давным-давно, давным-давно.
 
 
Исполняет М. Боярский
Далека дорога твоя, D/ Hm/ Em/ Hm
Далека, дика и пустынна G/ G/ D/ A/
Эта даль и глуш не для слабых душ D/ F#/F#7/Hm
Далека дорога твоя - 2 раза G/G/D/Hm
Пр: О прерия, прерия, великая даль Fm/ Hm/ Em/ A/
Индейские перья, английская сталь Fm/ Hm/ G/ A/
Тяжелая плата, смешная цена G/D/G/D
 
 
La la la, la la
Em C A C Em C A C
Turn the sun down
Em C
Turn the sun down
Hey!
E A
Oh no, don't say "surf's up"
 
 
Не думай о секундах свысока Hm *Em6 F# Hm - F#
Наступит время, сам поймешь наверное. Hm A *Am6
Свистят они, как пули у виска *Em7 A D7
Мгновения, мгновения, мгновения. *Em7 Em F#
У каждого мгновенья свой резон,
Свои колокола, своя отметина
Мгновенья раздают кому позор,
Кому бесславье,а кому бессмертие.
 
 
М.Таривердиев,
Р.Рождественский
Am H7
Я прошу, хоть ненадолго,
*Dm6 E7 A7
Боль моя, ты покинь меня.
Am *Dm6
Облаком, сизым облаком,
 
 
Am E Am
Молчите, молчите, прошу, не надо слов
Dm G7 C - A
Поверьте бродяге и поэту
Dm Am
На свете есть город моих счастливых снов
H E
Не говорите, что его нету.
 
 
1----------------------------8-6-5--------------------------------
2--5-6-5-4-5---5-6-5-4-5---5-------5-8-6-5-6-5-3-3-3--3-5-3-2+3-3-
3------------5-----------5----------------------------------------
4-----------------------------------------------------------------
5-----------------------------------------------------------------
6-----------------------------------------------------------------
-----------------------------------------------
-3-5-3-2+3-3-(з
 
*Gm6 A7 Dm *Gm6 A7 Dm
. . *Gm6 A7
-Что пpоисходит на свете?
. Dm
-А пpосто зима.
. . *Cm6 D7
-Пpосто зима,полагает вы?
. Gm
 
Dm Gm A7 Dm
-Что происходит на свете ? - А просто зима.
Cm D7 Gm
-Просто зима,полагаете вы ? - Полагаю.
C F Cm D7
Я ведь и сам,как умею,следы пролагаю ,
Gm A7 Dm
В ваши уснувшие ранней порою дома.
 
 
слова Ю.Левитанский музыка С.Никитин
Прислал: Александр AKA MaD DoG, smail@inbox.ru
авторская тональность-Cm
Hm7-5 | E7 |Am
-Что происходит на свете ? - А просто зима.
Em7-5 | A7 |Dm
-Просто зима,полагаете вы ? - Полагаю.
Dm |Fm |G7 |C
 
 
Автор слов не известен.
Am Dm
1. До свиданья, милый, не забудь меня,
G7 C
Добрый путь, любимый, не забудь меня.
Am Dm
Помни все, что было, не забудь меня,
Am E7 Am
 
 
Am
До чего дошел прогресс,
Dm
До невиданных чудес,
G
Опустился на глубины,
C
И поднялся до небес
 
 
C G7
Вcтaньтe, дeти, вcтaньтe в кpyг,
C
Вcтaньтe в кpyг, вcтaньтe в кpyг!
G7
Жил нa cвeтe дoбpый жyк,
*Dm7 G7 C
Cтapый дoбpый дpyг.
 
 
Музыка: И. Шварц
Слова: Б. Окуджава
Вступление: Hm | Hsus2 Hsus4
Hm Hm/D F#7
Жаркий огонь полыхает в камине,
F#7 A#m-5 Hm
Тень, моя тень на холодной стене.
Hm7 Hdim G6/H Hm
 
 
муз. К.Молчанова
 
Em Em Am
Может быть, пора угомонится,
D7 G
Но я, грешным делом, не люблю
C C7 F#7
Поговорку, что иметь синицу
 
 
Dm Gm A7 Dm A7
(1)Лыжи у печки стоят, гаснет закат за горой,
Dm Gm A7 Dm
Месяц кончается март, скоро нам ехать домой.
D7 Gm C7 F
Здравствуйте, хмурые дни, горное солнце, прощай,
Dm Gm A7 Dm A7
Мы навсегда сохраним в сердце своем этот край.
 
 
D
Затихает Москва, стали синими дали,
G B7 Em
Ярче блещут Кремлевских рубинов лучи...
E7
День прошел, скоро ночь, вы, наверно, устали,
A7 D
Дорогие мои москвичи?
 
 
Вступление:[Х67ХХХ],[Х678ХХ],[787ХХХ]; Слева на право: 1_ая струна, 2_ая струна, ..., 6_ая струна;
Вступление играется перебором:43212321.
Hm A
1.И грянет мгла из всех болот, из всех тесней,
D Em
И засвестит веселый кнут над пегой парою,
Em F# Hm
Ты запоешь свою тоску, летя во тьму один,
 
 
Исполнитель - Ведищева Аида
Вступление: Dm C B Am
Am C
Бежит, бежит, бежит дорога, не кончается.
Am Dm
В пути то маки, то тюльпаны нам встречаются;
G C
Они качаются и улыбаются
 
 
Am Am/G E/H E7
- Ах, сударыня, Вы верно согласитесь,
A7 A7/E Dm Dm/C
Что погода хороша, как никогда?
Dm/H Dm/A E E7/H A7 A7/E Dm Dm/C
- Право, сударь, я скажу, я и вправду нахожу,
Am Am/G H7/F# E7 Am
Что погода не такая, как всегда.
 
 
Am Dm E
Если в городе твоем снег
Am Dm G
Если меркнет за окном свет
C F
Если время прервало бег
Dm E
И надежды на апрель нет
 
 
Hm Em A D H7
Если у вас нету дома, пожары ему не страшны.
Em F# G H7
И жена не уйдет к другому,
Em A D G Em F# Am H7 Em F# Hm
Если у вас, если у вас, если у вас нет жены, нету жены.
Em A D Em A D H7
Оркестр гремит басами, трубач выдувает медь.
 
 
Dm Gm A7 Dm Gm C7
Ночь прошла, буд-то прошла боль, спит земля, пусть отдохнет, пусть.
F Gm Dm D# A7
Ведь у нее, как и у нас с тобой там впереди долгий как жизнь путь.
Dm E7 A7 B C F D7
Пр: Я возьму этот большой мир, каждый день, каждый его час.
Gm C7 F B Gm A7 Dm
Если что-то я забуду,
 
 
Dm Gm A7 Dm
(1)Призрачно все в этом мире бушующем.
Gm C7 F D7
Есть только миг - за него и держись.
Gm C F B
Есть только миг между прошлым и будущим.
D# A7 Dm (*Dm7+ 7 D7)
Именно он называется жизнь.
 
 
Em Am H7 Em
Призрачно все в этом мире бушующем,
Em Am D7 C+7 E7
Есть только миг, за него и держись,
E7 Am D7 G+7 C+7
Есть только миг между прошлым и будущим,
C+7 F+7 H7 Em (E7 для повтора)
Именно он называется "жизнь"
 
 
Gm Eb D7 Gm
А напоследок я скажу.
*Cm6 D7 Gm
А напоследок я скажу:
G7 Cm
Прощай, любить не обязуйся.
F7 B
С ума схожу.
 
 
Dm Am Dm B7 E7 Am
Am Dm
Мохнатый шмель - на душистый хмель,
G7 C A7/C#
Цапля серая - в камыши,
Dm Dm/C Dm/H Am
А цыганская дочь - за любимым в ночь,
H7 E7+3 E7
 
 
Cm Fm
Тихо, тихо... Тает костер догорающий
G Cm (D#7)
Нам с Артеком скоро прощаться пора.
G# A#m7 C7 Fm
Подарите на па---мять, товарищи,
G# Cm D7 G7 Cm
Мне живой уголек из костра.
 
 
Вступление: C | F | C | F | C | F |
C | F | C | F | C | F | G
C F C F C F C
Жил да был брадобрей -
F C F C A7 Dm
На земле не найти добрей!
G7 E7 Am Am7 D7
Брадобрей стриг и брил зверей.
 
 
Em H7
Мнe кaжeтcя пopoю, чтo coлдaты,
Em
C кpoвaвыx нe пpишeдшиe пoлeй,
H7
Нe в зeмлю нaшy пoлeгли кoгдa-тo,
Em
A пpeвpaтилиcь в бeлыx жypaвлeй.
 
 
Вступление: Em | Bm | F# | Bm
Bm B7 Em Cmaj
Наступила осень злая,
Bm F# Bm
И боясь метелей, вьюг,
B7 Em Cmaj
Журавлей поднялась стая,
Bm F# Bm
 
 
Em Am
Может быть, пора угомонится,
D7 G
Но я, грешным делом, не люблю
C C7 F#7
Поговорку, что иметь синицу
H7 Em
Лучше, чем грустить по журавлю.
 
 
Вступление: Em Em | Am B7
Em Am B7
Не мечтай долговязая цапля
Em Am7 D7 B7
О лихом удалом журавле:
E7 Am D7 Gm G
У него портупея и сабля,
Am Em B7 Em
 
 
Am Dm E7 Am
Как за меня матушка все просила бога,
Am G7 C
Все поклоны била, целовала крест,
Dm G7 C
А сыночку выпала дальняя дорога,
Dm Am E7 Am
Хло-поты бубно-вые, пиковый интерес.
 
 
Am G C
Как за меня матушка все просила бога,
Am G C
Все поклоны била, целовала крест,
Dm G7 C
А сыночку выпала дальняя дорога,
Dm Am E Am
Хло-поты бубно-вые, пиковый интерес.
 
 
режиссер Ю.Егоров
Слова Р.Рождественского
Музыка М.Фрадкина
Cm Cm7 Cm6 Fm B7 Eb Cm7
В небе колышется дождь молодой,
Ab C7 Fm Gm B7 Eb Gm7
Ветры летят по равни-нам бессонным...
D7 G7 Cm C7 Fm7 B7 Eb7
 
 
F#m Bm C# F#m
С любовью встретиться проблема трудная
Bm E A F#7
Планета вертится круглая, круглая
Bm E A
Летит планета вдаль сквозь суматоху дней
D A C#
Нелегко, нелегко полюбить на ней
 
 
/Л.Дербенев - А.Зацепин/
F#m Hm C# F#m
С любовью встретиться проблема трудная
Hm E A F#7
Планета вертится круглая, круглая
Hm E A
Летит планета вдаль сквозь суматоху дней
D A C#
 
 
C G F7
Лёгким ветерком играешь в волосах,
Fm C
Ты в облаке ночном, ты в солнечных лучах.
И каплями дождя ты на моём окне
И, даже уходя, остаёшься нежностью во мне.
Говорят, что стану лишь одной
Я из ста твоих побед.
 
 
Dm A7 Dm
Счастье вдpyг в тишине постyчалось в двеpи
Dm Gm A7
Hеyжель ты ко мне - веpю и не веpю
D7 Gm C(Gm) F(Dm)
Падал снег, плыл pассвет, осень моpосила
Gm Dm A7
Столько зим, столько лет где тебя носило?
 
 
для удобства: тональность "+3"
E F#m
Говорят, что если кто-нибудь икает,
B7 E
это значит, что его кто-то вспоминает.
E F#m
Если это в самом деле, в самом деле так,
B7 E
 
 
C Am F G
Прошумев моторами, выпустив дымок,
C Am F G
Через акваторию мчится катерок,
Am Em Am Em
Через акваторию, через акваторию,
F C G C
Через акваторию мчится катерок.
 
 
----------------1-------------0----------------0-1-----------------
-------1------------------0--------0-1--3------------1---3---------
-----0----------------0-2--------2-----------------0-----------0-0-
-2-3-------0-2-3------------------------------2-3------------------
-------------------------------------------------------------------
-------------------------------------------------------------------
-0------0------0------0---------------------------------------
 
Муз: М.Таривердиев. Слова: Б.Окуджава
Hm
Если у вас нету дома,
Em A D -H7
Пожары ему не страшны.
Em F# G - H7
И жена не уйдет к другому,
Em A D G
 
Муз: М.Таривердиев. Слова: А. Пугачевой
Am Dm E7
Мне нравится, что Вы больны не мной,
Am Dm E7
Мне нравится, что я больна не вами,
F G7 *Cmaj7 - *Fmaj7
Что никогда тяжелый шар земной,
Dm *Dm6 E
 
Муз: М.Таривердиев. Слова: Б.Окуджава
Em H7 Em
На Тихорецкую состав отправится.
Em H7 Em
Вагончик тронется, перрон останется.
Am H7 C
Стена кирпичная, часы вокзальные,
Am
 
 
Муз: М.Таривердиев. Слова: Б.Окуджава
 
Am Dm E7 Am Dm
Никого не будет в доме. Кроме сумерек.
G7C Dm G7 C
Один зимний день в сквозном проеме
Dm E7 *Gm6 A7 Dm E7 Am
Незадернутых гардин. Незадернутых гардин.
 
 
Муз: М.Таривердиев. Слова: Б.Окуджава
Hm G Hm
По улице моей который год
D A D
Звучат шаги, мои друзья уходят.
Em F# Hm
Друзей моих бессмысленный уход
G F# Hm
 
Муз: М.Таривердиев. Слова: Б.Окуджава
Am D Dm E7
Хочу у зеркала, где муть и сон туманящий
Am Dm G C
Я выпытать, куда вам путь, и где пристанище.
Dm E7 Am G C
Я вижу мачты корабля, и Вы на палубе.
Dm E7 Am G C
 
 
Вступление: Dm7 G7 | C A7 | Dm Dm Em7 Dm | E E7
Am E7 A7 D
Я спросил у ясеня, где моя любимая.
Dm E7 Am Am7 F7 E7
Ясень не ответил мне, качая головой.
Am E7 A A7 Dm Dm7
Я спросил у тополя, где моя любимая.
Dm G7 C A7 Dm E E7
 
 
Музыка и слова: А. Цекало
Em G F# H7
Вот ты, вот я -
Em G F# H7
В прошлом дружная семья.
Em G F# C
Все, что было, вдруг уплыло -
Em G F# H7 Em G F# H7
 
 
Вступление: Am | Am Am | F7 E7 } 3 раза
Am | Am | Dm7 | Dm7
Am Dm7
Вот ты, вот я -
Am Dm7
В прошлом дружная семья.
Am Dm
Все, что было, вдруг уплыло -
 
 
G C G D D7 D6 G
С рождения Бобби пай-мальчиком был, (молодец)
G C G
Имел Бобби хобби -- он деньги любил, (хороший мальчик)
G D D7 D6 G
Любил и коп`ил (что было дальше?)
Припев:
G H7 Em
 
6/8
Am Dm E
Арго! Да пошлет нам небо путь с луной и
Am Dm E
звездами,
Am Dm G C
Арго! Если сникнет парус мы ударим веслами,
Dm G C Am
 
 
Вступление: Em - 2p.
Em
Это нас вспоили медом
D
Те янтарные помойки,
C
Нам наплакала шарманка:
Edim B7
 
 
Intro:
C C* C C* C C* E
F F F* F F F* C
F Fm C Am
Dm G C
S(C)ee the pyramids al(E)ong the Nile
(F)Watch the sun rise from the tr(C)opic isle
(F)Just rem(Fm)ember darling (C)all the wh(Am)ile
 
 
(S=46) Em
Am Dm
Где-то на белом свете,
E Am
Там, где всегда мороз,
Dm
Трутся спиной медведи
G7 C
 
 
Dm Gm
Как жизнь без весны, Дороги любви
A Dm B
Весна без листвы, У нас не легки,
Gm
Листва без грозы, Зато к нам щедры
A Dm D7
А гроза без молнии, Белый мох и клевер.
 
 
Вступление: Em Am H7 Em
Em Am H7 Em
1. Как год без весны, весна без листвы,
Am H7 Em
Листва без грозы и гроза без молний,
Am H7 Em
Так годы скучны без права любви:
Am H7 Em
 
 
A7 D7
(1)Жил отважный капитан,
A7
Он объездил много стран
D
И не раз он бороздил океан.
D7
Раз пятнадцать он тонул,
 
 
A D E7 D
Жил отважный капитан,
A D7 A
Он объездил много стран
A7 D
И не раз он бороздил океан.
A7 D D7
Раз пятнадцать он тонул,
 
 
Am
С детских лет поверил я,
E
Что от всех болезней
Dm
Капель датского короля
Am
Не найти полезней.
 
 
муз. Е. Крылатова
Dm A
В юном месяце апреле
Dm A
В старом парке тает снег
D7 Gm
И веселые качели
*Gm6 A7
 
 
F#
Если решишь,
D#m
Можешь ты стать,
B C#
Одной из нас.
F# D#m
Винкс, только вместе мы сильны,
 
 
Dm A7 Dm Dm/F E7/B A7 A7/C#
Когда весна придет, не знаю.
A7 Dm Dm/F C7 F F/C
Пройдут дожди... Сойдут снега...
D7 Gm Gm/D A7/E Dm Dm/F
Но ты мне, улица родная,
Gm A7/C# A7 C7 F F/C
И в непогоду дорога.
 
 
Cm Fm
Тихо, тихо... Тает костер догорающий
G Cm (D#7)
Нам с Артеком скоро прощаться пора.
G# A#m7 C7 Fm
Подарите на па---мять, товарищи,
G# Cm D7 G7 Cm
Мне живой уголек из костра.
 
 
Am E(E7)
Еще и филин не кричал в густом пролесочке,
Am
А я задернула все занавесочки.
A7 Dm
Перебрала постель, отдвинула засов,
E7 Am
Ну что ж ты не идешь, моя любовь?
 
 
Gm
Вот и стали дни короче,
A7 DD7
От дождей раздулись ночи.
Fm G7
А душа никак не хочет
CC7
это лето отпустить.
 
 
D A7
Ложкой снег мешая,ночь идет большая.
D D7/C
Что же ты,глупышка не спишь?
Em7 Em7-5 A Bm
Спят твои соседи-белые медведи,
G A (Bm)D
Спи скорей и ты,малыш.
 
 
E E6 E E6 E
Ложкой снег меша__я,
H7 H9 H7 H9 H7
Ночь идет больша__я,
H7 H9 H7 H7 H7 E7
Что же ты, глу_пышка, не спишь?
A A6 A A6 A
Спят твои сосед_и -
 
 
C
Ложкой снег мешая
C
Ночь идет большая
C F
Только ты, глупышка, не спишь
F
Спят твои соседи,
 
Dm Gm
Хорошо над Москвою-рекой
C F
Услыхать соловья на рассвете.
F7 B
Только нам по душе непокой,
Gm Eb A7
Мы сурового племени дети.
 
 
Em
А в лугах
Am B7 Em
Как звенит в лугах роса, только тронь
Em
На ветру
Am D+ D7
Полыхает на ветру красный конь
 
 
Dm A
В юном месяце апреле
Dm A
В старом парке тает снег
D7 Gm
И веселые качели
Gm6 A7
Начинают свой разбег
 
 
C Am F G
Куда ты тропинка, меня привела.
C Am F G
Без милой принцессы мне жизнь не мила.
Em Am F G
Ах если б, ах если б, был рядом король.
Em Am F G
Открыл бы мне к сердцу принцесы пароль.
 
 
C Am Dm G
Куда ты, тропинка, меня завела?
Без милой принцессы мне жизнь не мила.
Em Am Dm B
Ах если б, ах если бы славный король
Em Am F G
Открыл бы мне к сердцу принцессы пароль!
C Em Dm G
 
 
Вступление: Gm | Gm | Gm | Gm
Gm D
И в жару, и в любой холод
Gm
Где-то здесь Купидон ходит.
G Cm
С колчаном, полным стрел, ходит
Am A7 D
 
 
D A
Как-то раз зашел монах к монашке,
D F#m
Собирался поиграть с ней в шашки,
G A
А монашка как кремень:
G A
"Ныне,отче,постный день!
 
 
Рекомендуемый рисунок:
Бой с глушкой (вниз-вверх-глушка-вверх-вниз-вверх-глушка)
Припев.
G# C# Fm A#m
Верный друг - вот седло,
D# G#
В путь, так вместе.
G# C# Fm A#m
 
 
C G
Да-да-давным давно, выше белых облаков
F C G
Стоял вулкан один среди морей
C G
А в воде и на земле, сплошь парочки влюбленные
F C G
И он мечтал о родственной душе
 
 
Вступление: Bm | F#7 | F#7 | Bm
Bm
По проспекту я лечу,
F#7
Обгоню кого хочу.
Bm B7 Em
И сверкают от луны
C#7 F#
 
 
М.Дунаевский - H.Олев
C F/G C F/G C F/G C
C F/G C F/G C F/G C
Жил да был брадобрей -
F/G C F/G C A7 Dm
На земле не найти добрей!
G7 Em Am Am7 D7
Брадобрей стриг и брил зверей.
 
 
G B
Oceнью в дoждливый cepый дeнь
Cm G D7
Пpoбeжaл пo гopoдy Oлeнь
Cm F B
Oн бeжaл пo гyлкoй мocтoвoй
Eb Cm D7
Pыжим лecoм пyщeннoй cтpeлoй
 
G C Am
Березы подмосковные
D7 G H7
Шумели вдалеке.
Em Am Am6
Плыла-качалась лодочка
H7 Em H7
По Яузе-реке.
 
 
муз. Гладков Г. / сл. Энтин Ю.
E G#m
Луч солнца золотого
C#m E
Туч скрыла пелена.
E H
И между нами снова
A G#
 
 
Am Dm
Я, словно бабочка к огню
E Am
Стремилась так неодолимо
A Dm
В любовь, в волшебную страну,
G E
Где назовут меня любимой.
 
 
Am E
ЛЮБОВЬ И БЕДНОСТЬ НАВСЕГДА
E7 Am
МЕНЯ ПОЙМАЛИ В СЕТИ
E
ПО МНЕ И БЕДНОСТЬ НЕ БЕДА
E7 Am
НЕ БУДЬ ЛЮБВИ НА СВЕТЕ
 
 
Em
Поздней ночью в небе одна
D
Так соблазнительно светит Луна
B7 Em C
И я б хотел для Вас с небес ее достать
C F B7
Но как мне быть ведь ночью нужно спать?
 
 
C F
Зеленою весной
Gm C7
Под старою сосной
Gm C7 F
С любимою Ванюша прощается.
Кольчугой он звенит
Gm C7
 
 
F Bb F
Легко на сердце от песни веселой,
F7 Bb
Она скучать не дает никогда,
Gm7 C7 F Bb7
И любят песню деревни и села,
F C7 F F7
И любят песню большие города.
 
 
Рекомендуемый рисунок:
Бой-шестёрка (вниз-вниз-вверх-вверх-вниз-вверх)
A
Тут у нас столпотворенье,
B
Это я столпотворю,
D
Это варится варенье,
 
 
Hm *Em6 F# Hm F#
(1)Не думай о секундах свысока
Hm A *Am6
Наступит время, сам поймешь наверное.
*Em7 A D7
Свистят они, как пули у виска
*Em7 Em F#
Мгновения, мгновения, мгновения.
 
 
Hm Em6 F# Hm F#
Не думай о секундах свысока
Hm A Am6
Наступит время, сам поймешь наверное.
Em7 A D7
Свистят они, как пули у виска
Em7 Em F#
Мгновения, мгновения, мгновения.
 
 
Вступление: Bm | Bm F# | Bm | Bm F#
Bm Em F#7 Bm F#7
Не думай о секундах свысока,
Bm A Am B7
Наступит время, сам поймешь, наверное.
Em A7 D G
Свистят они, как пули у виска,
Em F#7
 
 
Здесь представлены самые точные - оригинальные аккорды.
Слова М. Цветаевой Музыка М. Таривердиева
Hm Em F#9-
Мне нравится, что Вы больны не мной,
Hm Em F#
Мне нравится, что я больна не вами,
Em A7 D7+
Что никогда тяжелый шар земной,
 
 
Если в городе твоем снег Am Dm Em
Если меркнет за окном свет Am Dm Em
Если время прервало бег A7 Dm
И надежды на апрель нет Fm Em
Если в комнате твоей ночь
Притаился по углам мрак
И нет сил проогнать его прочь
Позови, я расскажу - как...
 
 
Am7 B7 Em
Вот опять небес темнеет высь,
Am B7 E7
Вот и окна в сумраке зажглись.
Am
Здесь живут мои друзья,
Em C
И, дыханье затая,
 
 
Em C
Оглян'ись, незнакомый прох'ожий.
Am H7 Em
Мне твой взгл'яд 'неподкупный знак'ом.
Em C
Может 'я это, только мол'оже...
Не всегд'а 'мы себя узна'ем.
Am H7 Em E7
 
 
Часть1 ~~~~~~~~~~~~~~~~
|--0-5-8-7-5-8-5-7-5-1-3-0-------0-5-8-7-5-8-5-7-5-0-------|
|--------5-------5----------1----------5-------5-----4-3---|
|--------5-------5---------2-2---------5-------5---------2-|
--------------------------------------------3-3|
|0-------0-------0-------0-----0-------0-------0-------2---|
-----------------------------------------------|
|----1-4-7---------1-4-5------------3-1-0-3-1-1-0-0--------|
 
1)-----0-5-8---]-7-5-8-5-]-7-5-1-3-]-0--------]-----0-5-8-]
2)-------------]-5-------]-6-------]----1-1-1-]-----------]
3)-------------]-5-------]-7-------]----2-2-2-]-----------]
4)-------------]---------]-0-------]----------]-----------]
5)--0----------]-0-------]---------]----------]--0--------]
6)-------------]---------]---------]-0--------]-----------]
1)-7-5-8-5-]-7-5-----]----------]-------5-]-7--------]
2)-5-------]-6---5-4-]-3--------]-----6---]----6-6
 
Am E Gm D(V)
1---------------------------------------|
2---------------------------------------|
3||--------10-9----------10-9--10-9--10-9----------9-7--9-7-----|
4||-7--10---------6--10--------------|--------8------------7----------------|
5------------|---10-------------9-------------------|
6---------------------------------------|
Dm(V) Am Dm E
 
e---------------------------1-0-----3------5-7-8-8---5-3----
b---------1-0-------------3-----3------3-----------------3--
g-------2-----2---------2-----------------------------------
D-----2---------------0-------------------------------------
A---0---------------0---------------------------------------
E-0---------------0-----------------------------------------
Am Dm Am Dm
e----0---1-----3------5-7-8-8---5-3---------0---
 
^^^ - нота звучит 2 секунды
^^^^ - нота звучит 4-5 секунд (compression рулит:))
1|----0--1^^^-------0--------------------------------------------|
2|--3--------------------1---------------------------------------|
3----------------------------------------------------|
4----------------3-----------------------------------|
5----------------------------------------------------|
6----------------------------------------------------|
 
Стихи Окуджавы, музыка Шварца
Еm
Здесь птицы не поют, деревья не растут...
H7 Em
И только мы, плечом к плечу, врастаем в землю тут.
Em Am
Горит и кружится планета, над нашей Родиною дым -
D G
 
 
Слова Энтин Ю. Музыка Крылатов Е.
Вступление: D7 | Gm | Gm | Gm
Gm Cm6
Над нами солнце светит, не жизнь а благодать,
F7 Gm
Тем кто за нас в ответе, давно пора понять,
Gm Cm
Тем кто за нас в ответе, давно пора понять,
 
 
Dm Gm
Увезу тебя я в тундру, увезу к седым снегам
A7 Dm
Белой шкурою медвежьей брошу их к твоим ногам
D7 Gm C7 F
По хрустящему морозу, увезу на край земли
Gm B E7 A
И среди сугробов белых затеряемся в дали.
 
 
C F G
Изменения в природе происходят год от года.
C F E7
Непогода нынче в моде, непогода, непогода.
Am D
Словно из водопровода льет на нас с небес вода.
F G C F G C
Полгода плохая погода. Полгода - совсем никуда.
 
 
Bm G D E
Bm G D E F#
Bm G
Море волнуется раз
D A
Билли считает мили
D G
Сбился его компас
 
 
кинoфильм "Тишинa", peж. В. Бacoв
Em Am
Дымилacь poщa пoд гopoю,
B7 Em
И вмecтe c нeй гopeл зaкaт...
Am
Hac ocтaвaлocь тoлькo тpoe
B7 Em
 
 
Am Dm
Дымилась роща под горою,
E Am E7
И вместе с ней горел закат...
Am A7 Dm
Нас оставалось только трое
E7 Am
Из восемнадцати ребят.
 
 
Em E7 Am
Дымилась роща под горою,
H Em
И вместе с ней горел закат...
Em E7 Am
Нас оставалось только трое
H7 E7
Из восемнадцати ребят.
 
 
Dm Gm
Дымилась роща под горою,
A7 Dm
И вместе с ней горел закат…
Gm
Нас оставалось только двое
A7 D7
Из восемнадцати ребят.
 
 
Em H7 Em
(1)На Тихорецкую состав отправится.
Em H7 Em
Вагончик тронется, перрон останется.
Am H7 C
Стена кирпичная, часы вокзальные,
Am
Платочки белые, платочки белые
 
 
М.Львовский.
Em Am H7 Em
На Тихорецкую состав отправится.
Am H7 Em
Вагончик тронется, перрон останется.
Am H7 C
Стена кирпичная, часы вокзальные,
Am
 
 
Am E
Мы знать не знаем и не помним,
E7 Am
Пока не встретимся с бедой,
G C
Что весь наш мир, такой огромный
Dm E F G
Висит на ниточке одной.
 
 
Вся песня на аккорды:
Am C Dm Em
 
Если бы я мог перемотать обратно
До самых первых кадров
И все пересмотреть замедлив
Прокрутку многократно
Возможно стало бы ясно
 
 
(из м/ф Тимка и Димка)
Слова М.Пляцковского - Муз.Б.Савельева
Dm A7 Dm
1.Дружба крепкая не сломается,
D7 Gm C7 F
Не расклеится от дождей и вьюг.
D7 Gm C7 F
Друг в беде не бросит, лишнего не спросит -
 
 
Dm A7
По воле рока так случилось
F G
Иль это нрав у нас таков, -
C F
Зачем троим, скажи на милость,
E7 A7
Такое множество врагов?
 
Dm A7
По воле рока так случилось
F G
Иль это нрав у нас таков, -
C F
Зачем троим, скажи на милость,
E7 A7
Такое множество врагов?
 
 
Am Am
По земле броди где хочешь,
E E7
Хочешь к звездам улетай,
A7 A
Лишь прошу ни днем ни ночью
Dm Dm/F
Ты меня не покидай.
 
 
режиссер Ю.Егоров
Слова Р.Рождественского
Музыка М.Фрадкина
 
Cm *Cm7 *Cm6 Fm B7 Eb *Cm7
В небе колышется дождь молодой,
Ab C7 Fm Gm B7 Eb *Gm7
Ветры летят по равни-нам бессонным...
 
 
Dm Dm/F Gm Dm
Опустела без тебя земля:
Dm Dm/F Gm
Как мне несколько часов прожить?
Gm6 A7
Так же падает в садах листва,
Gm6/E C
И куда-то все спешат такси:
 
 
Вступление: C#m | F#m B7 | E A | F#m G#7
C#m F#m C#m
Опустела без тебя Земля…
F#m
Как мне несколько часов прожить?
G#7
Так же падает листва в садах,
F#m B7
 
 
Am E7 Am E7
Нет, я не плачу, и не рыдаю,
Am Gm A7
На все вопросы я открыто отвечаю,
Dm G C F
Что наша жизнь - игра, и кто-ж тому виной,
H7 E7
Что я увлекся этою игрой.
 
 
C E7
Тебя просил я быть на свиданье,
A7
Мечтал о встрече, как всегда.
D7 G7
Ты улыбнулась, слегка смутившись,
C D#dim7 G G7
Сказала: "Да, да, да, да!"
 
 
Am Dm E7 Am Dm
Никого не будет в доме. Кроме сумерек.
G7C Dm G7 C
Один зимний день в сквозном проеме
Dm E7 Gm6 A7 Dm E7 Am
Незадернутых гардин. Незадернутых гардин.
Только белых мокрых комьев быстрый промельк
моховой, только крыши, снег, и кроме
 
 
C Em
Ничего на свете лучше нету
F G
Чем бродить друзьям по белу свету
C Am
Тем, кто дружен, не страшны тревоги
Dm G
Нам любые дороги дороги.
 
 
Am E(E7)
Еще и филин не кричал в густом пролесочке,
Am
А я задернула все занавесочки.
A7 Dm
Перебрала постель, отдвинула засов,
E7 Am
Ну что ж ты не идешь, моя любовь?
 
 
Облака (м/ф Ежик и медвежонок)
Am E Am
Мимо белого яблока луны
C G7 C
Мимо красного яблока заката,
Dm Dm7 Am
Облака из неведомой страны,
E E7 Am
 
 
Em H Em
Мимо белого яблока луны,
D G
Мимо красного яблока заката
Am Bbm6
Облака из неведомой страны
Em H7 Em
К нам спешат и опять бегут куда-то.
 
 
Am Am E Am
Мимо белого яблока луны,
C G C
Мимо красного яблока заката
Dm Am
Облака из неведомой страны
E Am
К нам спешат и опять бегут куда-то.
 
 
авт. Андрей Жигалов
Cm
На небе облако-рай, поди его угадай
G
Найти, узнать и понять невозможно
Какого цвета и где, скажи пожалуйста мне
Cm
Скорее ты там, где сыскать невозможно
 
 
Слова: Ю.Мориц
Музыка: С.Никитина
Припев:
Gm Cm Am7-5
Собака бывает кусачей
D7 Gm
Только от жизни собачьей
B Hdim Cm Am7-5
 
 
Am E A7 Dm
Как узор на окне
Dm Am Dm E
Снова прошлое рядом,Em
Am E A7 D
Кто-то пел песню мне
Dm Am E Am
В зимний вечер когда-то.
 
 
Em B7 Em Am Em B7 Em B7
Ой, цветет калина в поле у ручья.
Em B7 Em Am G D7 G
Парня молодого полюбила я.
B7 E7 Am D7 G
Парня полюбила на свою беду -
B7 Em Am Em B7 Em
Не могу открыться, слов я не найду.
 
 
Вступление: Am, Dm, Am, E, Am с подсвистыванием мелодии
Am
(1)На спящий город опускается туман
Am Dm
Шалят ветра по подворотням и дворам
Dm C
А нам все это не впервой, а нам доверено судьбой
E Am
 
 
Вступление: Am,Dm,Am,E,Am с подсвистыванием мелодии :)
Am
На спящий город опускается туман
Am Dm
Шалят ветра по подворотням и дворам
Dm C
А нам все это не впервой, а нам доверено судьбой
E Am
 
 
Играется двумя гитарами. Cоло:
 
е-0-0-5-3-1-------0---0-------
H-----------3-1-0---3---------
G-----------------------2-----
e-3-3--------8-7-5-4--0-8-7-8-7-5--0-5-3-5-3-1--0-0-3-1-0---------
H-----1-5-5-----------------------------------------------3-0-1---
G---------------------------------------------------------------2-
Em H7
Мы так давно, мы так давно не отдыхали
Em
Hам было просто не до отдыха с тобой.
E E7 Am
Мы пол-Европы по-пластунски пропахали,
H7
А завтра,завтра наконец последний бой.
 
 
Проигрыш: Em F G H
Em
Весь покрытый зеленью,
H7
Абсолютно весь
Остров невезения
Em
В океане есть.
 
 
Fm С7
Весь покрытий зеленью, абсолютно весь
Fm
Остров невезения в океане есть
F7 Bm
Остров невезения в океане есть
Bm Fm C7 Fm
Весь покрытий зеленью, абсолютно весь
 
 
G C G D D7 D6 G
С рождения Бобби пай-мальчиком был, (молодец)
G C G
Имел Бобби хобби -- он деньги любил, (хороший мальчик)
G D D7 D6 G
Любил и коп'ил (что было дальше?)
Припев:
G H7 Em
 
 
От героев былых времен не осталось порой имен.
E7 Am
Те, кто приняли трудный бой, стали просто землей и травой.
A7 Dm
Только грозная доблесть их поселилась в сердцах живых.
F G7 C F E7 Am
Этот вечный огонь нам завещан и одним. Мы в груди храним.
Посмотри на моих бойцов, целый свет помнит их в лицо
 
 
Am Dm E Am
1---5---3-0-------3-1-----0--------------------0--|
2----------------------|-----1-3-1-0------3-0------1--1-3-----|
3|--2--4-5-4--2----------|--2--4-5--2--4-------|--4--------------------|--4--4-4--2--4------------|
4-------------------------------------------------|
5-------------------------------------------------|
6----------------------_--------------------------------------
 
E
Ecли я чeшy в зaтылкe - нe бeдa!
B7
В гoлoвe мoeй oпилки, дa, дa, дa.
Am
Ho xoтя тaм и oпилки,
G
Ho кpичaлки и вoпилки,
 
 
.
Am Am+7 Am7 Am+7
E||--------0-----------0-----|--------0-----------0-----|
B||-----1-----1-----1-----1--|-----1-----1-----1-----1--|
1 G||--2-----------1-----------|--0-----------1-----------|
D-------------------|
A-------------------|
E-------------------|
 
F#m Hm
На меня надвигается
C# F#m
По реке битый лед,
Hm
На реке -навигация
Ab7 C#7
На реке пароход
 
 
C
На улице Стали
E
Мы жили мечтали
F
По улице этой
G
Ходили с тобой
 
 
D Hm
Приятно вспомнить в час заката
Em A D
Любовь забытую когда-то,
D7 G Em
Полезно вспомнить в час рассвета
D A D
Слова забытого поэта.
 
 
Am Em
Я бpодил по кpомке ночи и дня, я спyскался из pая в ад.
Dm Am
Я опять потеpял покой.
Em
Я хотел бы встpетить себя самого, лет двадцать томy назад,
Dm Am
Чтобы понять, кто он такой.
 
 
A
Емy не надо ждать ее y подъезда под аpкой -
E
А он не yходит и ждет.
A
Он носит ей то цветы, то подаpки -
E
Она не беpет.
 
 
E
Доpогая, отпyсти меня!
B
Моя pодная, отпyсти меня!
E
Hе читай мне моpаль и не зови на тyды,
A7
Hе пои своим пивом - в нем много воды,
 
 
Am Dm E
Если сто pаз с yтpа все не так,
Am Dm G
Если пpишла поpа сделать шаг,
C Dm E Am
Если ты одинок - значит, настал твой сpок
F E
И ждет за yглом пеpекpесток семи доpог.
 
 
E
Вы пpоходите мимо, я смотpю вам вслед,
Вы пpоходите мимо своих же побед.
A
И не глядя на небо, никого не любя,
E
Вы пpоходите мимо самих себя.
H
 
 
D# Cm
Хоть бог и запретил дуэли,
Fm A# D#
Но к шпаге чувствую талант,
D#7 G#
Дерусь семь раз я на неделе...
D# A#
Когда б вы честь мою задели,
 
 
E
Ecли я чeшy в зaтылкe - нe бeдa!
B7
В гoлoвe мoeй oпилки, дa, дa, дa.
Am
Ho xoтя тaм и oпилки,
G
Ho кpичaлки и вoпилки,
 
 
С G
Если я чешу в затылке - не беда!
G C
В голове моей опилки, да, да, да.
F
Но хотя там и опилки,
C
Но кричалки и вопилки,
 
 
D *Em7 E#dim D
(1)Расскажи, Снегурочка, где была?
*Em7 A+5 D
Расскажи-ка, милая, как дела?
D7 G F#7 Hm
За тобою бегала, Дед Мороз.
*Hm7 Em A7 D
Пролила немало я горьких слез.
 
 
Сл.Ю.Энтина - Муз.Г.Гладкова
D Em7 E#dim D
1.Расскажи, Снегурочка, где была?
Em7 A+5 D
Расскажи-ка, милая, как дела?
D7 G F#7 Hm
За тобою бегала, Дед Мороз.
Hm7 Em A7 D
 
 
G#
1. Если долго, долго, долго,
Если долго по тропинке,
Если долго по дорожке
C Bbm
Топать, ехать и бежать,
Bbm7
То, пожалуй, то, конечно,
 
 
C
1. Если долго, долго, долго,
Если долго по тропинке,
Если долго по дорожке
E Dm
Топать, ехать и бежать,
G7
То, пожалуй, то, конечно,
 
 
Слова А. ТИМОФЕЕВСКОГО Музыка В. ШАИНСКОГО
Cm
Пусть бегут неуклюже
G7
Пешеходы по лужам,
Cm
А вода - по асфальту рекой.
C7
 
 
слова Д.Непомнящей
музыка В.Шаинского
H H
По синему морю к зеленой земле
E H
Плыву я на белом своем корабле,
E H
На белом своем корабле,
 
 
Am
А я все чаще замечаю,
Am Dm
Что меня как-будто кто-то подменил.
Dm Am
О морях и не мечтаю -
Am E Am
Телевизор мне природу заменил.
 
 
Вcтyплeниe: F6
 
C7 F6
Ни мopoз мнe нe cтpaшeн, ни жapa.
Gm C7 F6
Удивляютcя дaжe дoктopa,
*Gm7
Пoчeмy я нe бoлeю,
 
 
(из к/ф дeти кaпитaнa гpaнтa)
 
A7 D7
Жил oтвaжный кaпитaн,
A7
Oн oбъeздил мнoгo cтpaн
D
И нe paз oн бopoздил oкeaн.
 
 
Dm E7 A7 Dm
Где-то на белом свете, там где всегда мороз,
Gm Bb C7 F F7
Трутся спиной медведи о земную ось.
Gm C7 F Bb
Мимо плывут столетья, спят подо льдом моря,
Dm E7 A7 Dm
Трутся об ось медведи - вертится Земля.
 
 
Em Am B7
Если вы, нахмурясь, выйдете из дома,
Em
Если вам не в радость солнечный денёк, -
E7 A7 D7 G
Пусть вам улыбнётся, как своей знакомой,
Am Em B7 Em
С вами вовсе не знакомый, встречный паренёк.
 
 
Am E
Шпаги звон как звон бокала
Am - A7
С детства мне ласкает слух
Dm
Шпага многим показала,
Am
Шпага многим показала
 
 
Am Dm7 G7 C
В темно-синем лесу,где трепещут осины,
F B7+ H7 E7
Где с дубов-колдунов облетает листва,
Am Dm7 G7 C
На поляне траву зайцы в полночь косили
B7+ F H7 E7
И при этом напевали странные слова.
 
 
Говорят, что если кто-нибудь икает,
это значит, что его кто-то вспоминает.
Если это в самом деле, в самом деле так,
то прошу меня не вспоминать никак!
Что такое - каждый миг только ик, ик, ик.
И откуда он возник этот Ик, ик, ик.
И откуда, и откуда он возник?!
Оделели ики, надоели ики -
 
Вступление: Fm G7 Cm
G7 C
От улыбки хмурый день светлей,
F C
От улыбки в небе радуга проснется...
Am Dm
Поделись улыбкою своей,
C G7 C
 
Песенка Фунтика
C
1.Хорошо бродить по свету
F C
с карамелькою за щекою
A7 Dm
А еще одну для друга
G C
 
Я пpoшy, лишь нe нaдo cлeз...
[e---9-0-0--7-5-7-------7------5-3-5-------5------5-4-5----------
B----------------6-5-----5-5--------4-3-----3-3--------2-1------
G---------------------------------------------------------------
D---------------------------------------------------------------
A---------------------------------------------------------------
E---------------------------------------------------------------
e-------0-1-1-0---------0-------------------
 
Am Dm
Позабыв про честь наследную,
G C
По карьеру, про дела,
F C
Юный князь влюбился в бедную,-
Dm E7
Она сына родила.
 
c
Человек я простой
D
И скажу не таясь,
F
Что такой красоты
G
Не видал отродясь
 
 
C Em
Ничего на свете лучше не-е-ту,
F G
Чем пройти друзьям по белу све-е-ту,
C E7 F
Тем, кто дружен - не страшны тревоги,
G G7 C Am
Нам любые дороги доро-о-ги
 
 
[Проигрыш] C(III) B(I) C(III) Eb(III)
C Em
Ничего на свете лучше нету,
Dm G
Чем бродить друзьям по белу свету,
C Em Am
Тем кто дружен, не страшны тревоги,
Dm G C
 
 
муз. Е.Крылатова
сл. Л.Дербенева
Am E Am
Любви полно и радости все королевство наше,
Добру и справедливости здесь все принадлежит,
Am G C
Когда король обедает, обедает и стража,
Dm Am E Am
 
 
Часть 1: Em
1---------------------------------------------------------------
2--0----1--0-----0-------------0----1--0-----0-------------0----
3-------------3-------0--------0----------3-------0--------0----
4------------------------2-----2---------------------2-----2----
5---------------------------------------------------------------
6---------------------------0---------------------------0-------
Am
G Em
Птицы не люди - им не понять ли,
C Am B D
Что нас вдаль влечет?
G Em
Только стервятник, старый гриф стервятник
C D
Знает, в мире что почем.
 
 
F
Мальчишки и девчонки!
C
А также их родители!
C
Весёлые истории
F
Увидеть, не хотите ли?
 
 
F G
Чтоб могли на Марс летать
C F
Люди без опаски,
F G
С детства учимся мечтать
C Gm A7
Мы у старой сказки.
 
 
С E Am F
Fruitella!!! Долго будем наслаждаться!!!
С E Am F
Fruitella!!! Вместе будем улыбаться!!!
С E Am F
Fruitella!!! Вместе будем Тря-ля-ля-ля!!!
С E Am F
Fruitella!!! Вместе будем Тру-лю-лю-лю!!!
 
 
Csus2 D Gm Gm/9 Gm
Как не мои слова прольётся всё, что знаю я,
Csus2 D Gm Gm/9 Gm
и взглядом обернётся, закрывая мои глаза.
Движением руки, движением, касанием руки
сорвется пелена и свет собой накроет с головой.
Как не моя душа метнётся, не взглянув назад,
И что-то оборвётся, получая пламенный разряд.
 
 
Am
А я все чаще замечаю, (2 раза)
Am Dm
Что меня как-будто кто-то подменил.
Dm Am
О морях и не мечтаю - (2 раза)
Am E Am
Телевизор мне природу заменил.
 
 
Am
(1)А я все чаще замечаю,
Am Dm
Что меня как-бyдто кто-то подменил.
Dm Am
О моpях и не мечтаю -
Am E Am
Телевизоp мне пpиpодy заменил.
 
E7
Весь мир у нас в руках,
C
Мы – звезды континентов,
A
Разбили в пух и прах
C
Проклятых конкурентов!
 
 
Припев:
C E Am C7
Пора-пора-порадуемся на своем веку
F C D G
Красавице и кубку, счастливому клинку
C E Am A
Пока, пока, покачивая перьями на шляпах
Dm G C
 
 
(оригинальная тональность - Cm)
Hm G D
Бьют свинцовые ливни,
Em F#7 HCm
Нам пророчат беду,
Hm G D
Мы на плечи взвалили
A D
 
Вступление: Am Em | Dm E7
Am B7
Я прошу, хоть ненадолго,
Dm E7 A7
Грусть моя, ты покинь меня!
Am Dm
Облаком, сизым облаком
E7 Am
 
 
Dm F
Когда вам одиноко и грустно отчего-то,
G Gm
Иль что-то охота понять,
Dm F6
Пойдите и спросите седого звездочета,
Gm A
Он рядом рукою подать,
 
 
(Дамы и господа, сейчас вы услышите трагическую и
поучительную историю о мальчике Бобби, который любил...
Да, любил деньги. Рассказывай!)
G C G D7 G
С рождения Бобби пай-мальчиком был, (Молодец)
G C G D7 G
Имел Бобби хобби -- он деньги любил, (Хороший мальчик)
C G D7 G
 
 
Забава:
C G Am F G
Маленький домик русская печка пол деревянный лавка и свечка
C G Am Dm G C
Котик мурлыка муж работящий вот оно счастье нет его слаще
C G
Аааах если бы сбылась моя мечта
Dm G C F G
 
 
Am E7
Шпаги звон, как звон бокала,
A A7
С детства мне ласкает слух.
Dm7 G7
Шпага многим показала,
C F
Шпага многим показала,
 
 
Am C
Пускай ветра буянят. Шторма пускай штормят.
Dm Am
Меня дороги манят. Пути меня манят.
G7 C G7 C
Не знаю, что я встречу, но я ношу с собой
Dm E7 Dm E7
Один патрон с картечью, другой патрон с мечтой.
 
 
Вступление: Em-4 p.
Em Em
На речном песочке я Марусю встретил -
Am B7 Em
В розовых чулочках, талия - в корсете!
Am Em B7 Em
Да-да, да-да - в розовых чулочках...
Am Em B7 Em
 
Am *Dm7 G7 C
(1)В темно-синем лесу, где трепещут осины,
F B7 H7 E7
Где с дубов-колдунов опадает листва,
Am *Dm7 G7 C
На поляне траву зайцы в полночь косили
D7 F H7 E7
И при этом напевали странные слова:
 
 
Hm G D E
Hm G D E F#
Hm G
Море волнуется раз
D A
Билли считает мили
D G
Сбился его компас
 
Am E Am
Пycть нeтy ни кoлa и нe двopa.
Dm G7 C A7
Зaтo нe плaтят кopoлю нaлoги
Dm E7 F
Paбoтники нoжa и тoпopa -
Dm E7 Am
Poмaнтики c бoльшoй дopoги.
 
 
Am Dm
Говорят мы буки буки, как выносит нас земля?
G C
Дайте что ли карты в руки погадать на короля,
Dm E7 Am
Ой-ля-ля, ой-ля-ля, погадать на короля,
Dm E7 Am
Ой-ля-ля, ой-ля-ля, Ех-ха!
 
 
Am E Am
Пусть нету ни кола и ни двора
Dm G C
Зато не платим королю налоги
Dm E Am
Работники ножа и топора
Dm(или F) E Am
Романтики с большой дороги
 
 
Am E Am
Пусть нету ни кола и не двора.
Dm G7 C A7
Зато не платят королю налоги
Dm E7 F
Работники ножа и топора -
Dm E7 Am
Романтики с большой дороги.
 
 
C G
(1) Луч солнца золотого
Am C G
Туч скрыла пелена-а-а-а ,
С Em
И между нами снова
Am E
Вдруг выросла стена...
 
 
He's A Pirate
Дорожка 1
E S S S S E S S S S E S S S S E S S S S E S S S S E S S S S
E||------------------------|------------------------|------------------------|
B||------------------------|------------------------|------------------------|
G||------------------------|------------------------|------------------------|
D||--0--0-0-0-0-0--0-0-0-0-|--0--0-0-0-0-0--0-0-0-0-|--0--0-0-0-0-0--0-0-0-0-|
A||--------
 
Am
Моё сердце так тоскует
F
Ни к чему мне денег звон.
Dm
Лишь моряк меня утешит,
E Am
Ведь дороже злата он.
 
 
Вступление:
e|---3-2-3---3-2-3----2------0-------------------------------------------------|
H|---3-3-3---3-3-3------3------2----3------2------0---3------------------------|
G|------------------2-----2------2----4------2------0--------------------------|
D|--------------------0------2----------4------2-------------------------------|
A|---------0------------------------2------0------2----------------------------|
E|-0-------------------------------------------------
 
Проигрыш: D (арпеджио pimiaimip)
D
Изменения в природе
G A7
Происходят год от года.
D
Непогода нынче в моде,
G A F#
 
 
C F G
Изменения в природе происходят год от года.
C F E7
Непогода нынче в моде, непогода, непогода.
Am D
Словно из водопровода льет на нас с небес вода.
F G C F G C
Пол года плохая погода. Пол года - совсем никуда.
 
 
Hm G Hm D A D
По улице моей который год звучат шаги, мои друзья уходят.
Em F# Hm G F# Hm
Друзей моих бессмысленный уход той темноте за окнами угоден.
F#m A D Em F#
О одиночество! Как твой характер крут, посверкивая циркулем железным,
Hm Em C G F#
Как холодно, ты размыкаешь круг,
 
 
Hm Fm Hm Fm
Hm Em F# Hm
Усталость забыта колышется чад
Hm G A D
И снова копыта как сердце стучат
Hm F#m F#m H7 Em
И нет нам покоя гори но живи
Em Em Em F A F#m
 
 
E-----------
B||----1----------------|----1----4----2-------1
G|-------1------------|----1----0---
D||---------3-----------------------
A-----------
E-----------
------------------------------|---------1----3--
------------------------------|----1------------
 
Стихи М.Цветаевой
Музыка А.Петрова
Em
Am7 D7 G
Под лаской плюшевого пледа
H7 Em
Вчерашний вызываю сон.
Am7 D7 G
 
 
F#m E A E
F#m E
Под Луганском родился
F#m E
В Бухаре простудился
F#m A
Значит так, в Копенгагене напился
E F#m E
 
 
Cm Dm7 Fm G7 Cm
Не слышны в саду даже шорохи,
Eb Eb7 Ab7 Bb7 Eb Cm7
Все здесь замерло до утра.
D7 G7 Cm Fm6
Если б знали вы, как мне дороги
D75- Cm Dm G7 Cm
Подмосковные вечера.
 
 
------------------------------------------------------------------
-------------------------------------5----------------------------
-----------------------|-----5-5-7--5------4--6----7--------------5-----------
-----7---5-----7--5----|---7----------8-7------------7------7-5-8---8-7-5-----
-5-8---8---8-7-------5-|-8------------------------------7-5---------------8---
------------------------------------------------------------------
--------------------------------
 
Cm Dm7 Fm G7 Cm
Не слышны в саду даже шорохи,
Eb Eb7 Ab7 Bb7 Eb Cm7
Все здесь замерло до утра.
D7 G7 Cm Fm
Если б знали вы, как мне дороги
D7 Cm Dm G7 Cm
Подмосковные вечера.
 
 
Муз.М.Дунаевского
Сл.Р.Рождественского
Em
Позвони мне,позвони!
Am
Позвони мне,ради бога!
D7
Через время протяни
 
 
C
(1)Изменения в природе
F G7
Происходят год от года
C
Непогода нынче в моде
F E7
Непогода, непогода
 
 
D
Изменения в природе
G A
Происходят год от года.
D
Непогода нынче в моде,
G A F#7
Непогода, непогода.
 
 
C G7 C
Дождливым вечером, вечером, вечером,
G7
Когда пилотам, скажем прямо, делать нечего,
E7 Am
Мы приземлимся за столом,
D7 G7
Поговорим о том, о сём
 
 
Gm Cm
Поручик,выпьем перед боем
D Gm
Глоток вина в походной фляге
Gm Cm
Он через час железным строем
F D7
Уйдет в психической атаке.
 
 
Слова и музыка М.Ножкина
Em H7
Мы так давно,мы так давно не отдыхали.
Am D7 G
Нам было просто не до отдыха с тобой.
H7 Em E7 Am
Мы пол-Европы по-пластунски пропахали,
F#7 H7
 
 
Слова Р. Тагора. Перевод А. Адалис.
G7+ = 3х0202
F#m7 = 242252 !!! примечание: вместо него можно брать мажорный F#, но тогда у вас
строчка "Знаю, когда-нибудь..." не будет акцентирована так, как ее хотел выделить
Рыбников :-)
F# = 244322
D, G, A7 и А брать без баррэ!
"Веселые аккорды" (если будете играть НЕ на 12-струнке):
 
 
D
Ветер ли старое имя развеял,
G D
Нет мне дороги в мой брошенный край.
G D
Если увидеть пытаешься издали,
A G
Не разглядишь меня, не разглядишь меня,
 
 
Am Dm E Am
Летит паровоз по долинам, по взгорьям
C E
Летит он неведомо куда.
Am A7 Dm
Я к маменьке pодной с последним пpиветом
Am E Am
Спешу показаться на глаза.
 
----------|--------0---------------0--------|
|----1---1---0----0---|------1------1--------0--------0-|
|----2---2---2----1---|----2--------2------2----------1-|
--------------------------------|
|-0-------------------|-0-------------------------------|
|------3---1---0------|----------3------1----------0----|
------0---|-0----5--3--1--------------------|
|---1---1---1---------|---1-----------0---3---1---------|
 
Вступление: (прислал: Лысенко Александр, al_lisenko@ukr.net)
Am Dm E7 Am C(III) E(IV)
e-0-0-5-3-1-----------0-----3-3-0---3-3-8-7-5-4--
h-----------3-1-0-1-3---1------------------------
g------------------------------------------------
Am A Dm Am
e-0-8-7-8-7-5--5-5-5-6-5-3-1--1-1-3-1-0----------
h---------------------------------------3-1-0----
 
G A D Hm
Представь себе весь этот мир, огромный весь,
G D
Таким, каким он есть, на самом деле есть.
Hm D G
С полями, птицами, цветами и людьми,
Fm H7
Но без любви, ты представляешь, без любви.
 
 
Вступление: Am
Am Dm
Слышу голос из Прекрасного Далека,
G7 E7 Am
Голос утренний в серебряной росе.
F G7 C
Слышу голос - и манящая дорога
Dm B7 E7
 
 
Am Dm
(1)Слышу голос из Прекрасного Далека,
E7 Am
Голос утренний в серебрянной росе.
F G C
Слышу голос - и манящая дорога.
F E7
Кружит голову, как в детстве карусель.
 
Am Dm6
Слышу голос из прекрасного далека,
E7 Am
Голос утренний в серебряной росе.
F G C
Слышу голос, и манящая дорога
Dm H E
Кружит голову, как в детстве карусель.
 
 
A
Зверя по следам любого
F#m
узнавать умею я!
Hm
И жирафа, и корову,
D E
и жука, и воробья!
 
 
Колыбельная
Е. Крылатов Ю. Яковлев
C
Ложкой снег мешая,
G
Ночь идет большая,
G7 C C7
Что же ты, глупышка, не спишь ?
 
 
Am E7 Am
(1)Я был когда-то странной игрушкой безымянной,
C G7 C
К которой в магазине никто не подойдет.
Am Dm G7 C A7
Теперь я - Чебурашка, и каждая дворняжка
Dm Am E7 Am
При встрече сразу лапу подает.
 
Слова Михайлов Ю. Музыка Гладков Ген.
Поют Миронов А.
C Em C Em
Давайте негромко,Давайте в полголоса,
Am G# D7 Dm7 G7
Давайте простимся светло.
C Em C Em
Неделя, другая,И мы успокоимся,
 
 
Идеальный подбор и приятная мелодия. Твоей
бабуле особенно понравится. ;)
C E Am
1-------0-----0-----0-----0--------------0-----0-----0--------0-----0-----0------------------0-----0-----0-
2-------1-----1-----1-----1--------------0-----0-----0--------0-----0-----0------------------1-----1-----1-
3-------0-----0-----0-----0--------------1-----1-----1--------1-----1-----1------------------2-----2-----2-
4-----------------
Вcтyплeниe: A A A DmAj E7
D6 A6 E7 D6 E7 A
 
Am
Coлнeчный кpyг,
H7 E7
Нeбo вoкpyг -
Am H7 *Dm6 E7
 
 
А.Зацепин - Л.Дербенев
Am Dm
Счастье вдруг в тишине
E7 Am
Постучалось в двери.
Dm
Неужель ты ко мне?
H7 E7
 
 
сл. Ю.Ряшенцева
муз. В.Лебедева
Em D
И глянет мгла из всех болот, из всех теснин,
C Am
И засвистит веселый кнут над пегой парою,
F#m7-5 H7 Em
Ты запоешь свою тоску, летя во тьму один,
 
 
[Рапунцель]
C G F C
Столько дней у окна сидела
C G F C
Столько лет мучилась, ждала
F G C Em
Я жила и не замечала
C G F
 
 
Сл.Ю.Энтина - Муз.Г.Гладкова
D Em7 E#dim D
1.Расскажи, Снегурочка, где была?
Em7 A+5 D
Расскажи-ка, милая, как дела?
D7 G F#7 Hm
За тобою бегала, Дед Мороз.
Hm7 Em A7 D
 
 
F# A#
Девушки весной так легко одеты,
D#m B
В огненную смесь превращают кровь.
F# A#
Солнечной волной ультрафиолета
D#m B F# C#
Город поднимает небо крылья приготовь
 
 
G/D/Em
Я прихожу к тебе
G/D/C
Что ты все время ешь?
G/D/Em
Глядя в окно сидишь
G/D/C
И обо мне грустишь.
 
[e---------------------------------------------------------------
B---------------------------------------------------------------
G---------------------------------------------------------------
D------------------------1-0------------------------------------
A---1-2--4-5---1-2--4-5--------2-5--9-8---7-5-2-0-2-------------
E---------------------------------------------------------------
e---------------------------------------------------------------
B--------
 
Em Am7
Вы чьи широкие шинели
D7 G B7
Hапоминали паруса
Em Am7
Чьи шпоры весело звенели
D7 D#dim B7
И голоса и голоса
 
 
Am F C
Поле русское поле
Dm G C
Светит луна или падает снег
Dm E Am F
Счастьем и болью вместе с тобою
Dm Dm E
Нет не забыть тебя сердцу вовек
 
 
исполняет (типа) Антонио Бандерас (Antonio Banderos)
фильм Desperados (Отчаянные) часть 1.
в гл. роли Ант БандУрас
в самом начале фильма показана сцена с тремя гитарами...
даю чего есть, за вменяемость и верность не ручаюсь,
что написано - не смотрел.
пробуй!
Original Version
 
 
М.Таривердиев,
Р.Рождественский
Am B7
Я прошу, хоть ненадолго,
Dm6 E7 A7
Боль моя, ты покинь меня.
Am Dm6
Облаком, сизым облаком,
 
 
G/D/Em
Я прихожу к тебе
G/D/C
Что ты все время ешь?
G/D/Em
Глядя в окно сидишь
G/D/C
И обо мне грустишь.
 
 
сл.Е.Евтушенко
муз.Е.Крылатова
|Dm |Gm
Уронит ли ветер в ладони сережку ольховую,
|A7 |Dm
Начнет ли кукушка сквозь крик поездов куковать,
|Gm
Задумаюсь вновь и, как нанятый, жизнь истолковываю
 
 
сл.Ю.Энтина
Em H7
Hаша служба и опасна и трудна
Em
И на первый взгляд как будто не видна
E E7
Если кто-то кое-где у нас порой
Am H7 Em Am-H7
 
 
Gm Cm
Моей душепокоя нет
*Cm6 D7 Gm
Весь день я жду кого-то.
*Cm7
Без сна встречаю я рассвет
F7 B
И все из-за кого-то.
 
Am Dm
Шаланды полные кефали
E7 Am
В Одессу Костя приводил,
Dm
И все биндюжники вставали
E7 Am
Когда в пивную он входил.
 
 
Am Dm
Cлышy гoлoc из Пpeкpacнoгo Дaлeкa,
E7 Am
Гoлoc yтpeнний в cepeбpяннoй poce.
F G C
Cлышy гoлoc - и мaнящaя дopoгa.
F E7
Кpyжит гoлoвy, кaк в дeтcтвe кapyceль.
 
 
Dm
(1)Как то летом на рассвете
A7
Заглянул в соседний сад,
Там смуглянка-молдаванка
Dm
Собирает виноград.
 
 
 
Em Am6
Как-то летом на рассвете заглянул в соседний сад,
H7 Em
Там смуглянка-молдаванка собирает виноград.
E7 Am
Я краснею, я бледнею, захотелось вдруг сказать:
Am6 Em Am6 Em H7 Em
"Станем над рекою зорьки летние встречать!"
 
 
А.Новиков - Я.Шведов
Dm
Как то летом на рассвете
A7
Заглянул в соседний сад,
Там смуглянка-молдаванка
Dm
Собирает виноград.
 
 
Fm
Как то летом на рассвете
C7
Заглянул в соседний сад,
C7
Там смуглянка-молдаванка
Fm
Собирает виноград.
 
 
Вступление: Abm A#7 | Ebm Abm A#7 A#7
Ebm
Снег нетронут и чист,
И тайга – белый лист
Abm
Моего письма,
Где спешат за порог
A#7
 
 
Вступление: C D | Em | C D7 | G | G
D7 G C
Когда в дом входит год молодой,
D7 G
А старый уходит вдаль,
C
Снежинку хрупкую спрячь в ладонь,
D7 G
 
 
Вступление: F#m | F#m
F#m C#7
Со мною вот что происходит:
F#7 Bm
Ко мне мой старый друг не ходит,
E7 A D
А ходят в праздной суете
Bm Bm7 C#
 
 
Am Dm
Припев:
Собака бывает кусачей
E7 Am
Только от жизни собачей
C Dm
Только от жизни, от жизни собачей
Am E7 Am
 
 
сериал "Солдаты"
режиссер Сергей Арланов
Am
Здравствуй, небо в облаках,
Здравствуй, юность в сапогах!
Пропади, моя тоска,
Вот он я, привет, войска!
F
 
E Am G C
Женюсь, женюсь. Какие могут быть игpушки...
Dm E
И буду счастлив я вполне...
E Am Dm G C Dm E Am
Hо вы, но вы, мои вчеpашние подpужки, мои вчеpашние подpужки,
Dm E Am
Hапpасно плачете по мне.
 
 
C G7 C
Cпи, мoя paдocть, ycни!
F C
В дoмe пoгacли oгни;
G G7
Пчeлки зaтиxли в caдy,
C
Pыбки ycнyли в пpyдy,
 
 
Dm G C Am
(1)Прекрасен миг, когда старик натянет шарф под самый нос
Dm G C A7
И скажет псу: - А ну-ка, пёс, пойдём во дворик.
Dm G C Am
А на дворе метёт снежок и скажет псу: - Привет дружок!
Dm E7 Am
Незлобный дворник, дядя Костя, алкоголик.
 
 
Em G E G
(1)Догорает старый вальс
E7
На твоих подсвечниках.
Am C Em G H7 Em E7
Догорит, уплывет, только докоснусь.
ускоряя: Am C Em G
Ночь моя, ночь моя, кровь моя, } 2 раза
 
 
1---------------------2-0------------2-2-0-3-2-3-2-0-2
2-3-2-0--3-2-0--0-2-3-----3-2--0-2-3------------------
1-3-2-0--------------0-2-3-5--3-2-0------0-2---0------
2-------0-3-2--0-2-3-----------------0-3-----0---3-2-0
Старый клен, старый клен,
старый клен стучит в стекло,
Приглашая нас с друзьями на прогулку.
Отчего, отчего, отчего мне так светло? ! 2 раза
 
Am
Старый клен, старый клен,
Dm
Старый клен стучит в стекло,
Am Dm G C
Приглашая нас с друзьями на прогулку.
Dm G
Отчего, отчего,
 
 
сл.М.Матусовского, муз.А.Пахмутовой
Em
Старый клен, старый клен,
Am H7
Старый клен стучит в стекло,
Em Am D G
Приглашая нас с друзьями на прогулку.
Am D G E
 
 
Em
Старый клен, старый клен,
Am B7
Старый клен стучит в стекло,
Em Am7 D7 G E7
Приглашая нас с друзьями на прогулку.
Am D7
Отчего, отчего,
 
 
Gm | A7 D7 | Gm | A7 D7 | Gm
Cm D7 Gm
Сегодня праздник у девчат, сегодня будут танцы,
Cm F A#
И щеки девушек горят, с утра горят румянцем,
Cm D7 Gm Cm D7 Gm G7
Пришли девчонки, стоят в сторонке, платочки в руках теребят,
Cm F Fm G7 Cm D7 Gm
 
 
Em
Я в весеннем лесу пил березовый сок.
E7 E Am
С ненаглядной певуньей в стогу ночевал.
H7 Em
Что имел не сберег. Что любил - потерял.
Am F#7 H7
Был я смел и удачлив, но счастья не знал.
 
 
Исп. группа Времена
Dm Am
Да, завтра я сумею позабыть
Dm Am
Жить, словно ничего и не сбылось
Gm C
Брось, я себе сказал что все пройдет
Gm Bm
 
 
Am E7 Am
Странствуя по свету словно птица
A7 Dm
Преодолевая жизни путь,
G C F
Изредка, однажды, иногда, как говорится
H E7
Я б хотел забыться и уснуть
 
 
D G D A
Тинки-Винки, Дипси, Ляля, ПО
D G
Телепузик,телепузик
D A
Вместе мы друзья
D G
Телепузик,телепузик
 
-----------------1-------------0----------------0-1-----|
|-------1------------------0--------0-1--3------------1---3---------|
|-----0----------------0-2--------2-----------------0-----------0-0-|
|-2-3-------0-2-3------------------------------2-3------------------|
--------------------------------------------------------|
--------------------------------------------------------|
|
|-0------0------0------0--------------------------------------------|
 
интро
4:-3~~-5-6-1~~
Pillscrape (ведете медиатором от звукоснимателей по струнам с жесткой дисторцией
предпочтительно по 4 5 6 струнам)
Fm G#m Cm D# pillscrape
1:-1--4--8--11--
2:-1--4--8--11--
3:-1--4--8--11--
 
 
e-------------------------------|------
B-------------------------------|------
G-----------------------|-2-----3-2-1-0---0-|------
D--------|-2-2-2-3-0----------------|---0-0---------4---|------
A|-0-0-0---3-0---3-0-3---3-0---3-0----------|------
E|-------1-----1-------1-----1--------------|------
e--------------------------
B--------------------------
 
e-----------------3---------3------------| B---------3-1-0-----3-1-0-----3-1-0-1----| G-------0-------2---------2-----------2--| ...
 
E ----------------------------------------------------------------
H ----------------------------------------------------------------
G ----------------------------------------------------------------
D |---7-5-8-7--7--5-7-8-7------------5---------------------------------------
A |-5-----------8---------3----5-7-8---8-5---5-8-7-5-3-5----------------------
E ----------------------------------------------------------------
E -------------------------------------------
 
E---------------------------------------------------|
B||--6--8--6--5--6-----6--8--6--5--6--------10-10-10--9-9--8--10--7—6-6-----|
G|-----6------------------6--6----------------------------------|
D---------------------------------------------------|
A---------------------------------------------------|
E---------------------------------------------------|
E||-----10-10--9--10--9--8--7-7-6--7--6--6--5-5--6--5--6----6---------------|
B||--6---------------------
 
1. Основная тема (звучит в начале первой части)
--------------------|
|-15----14-15-16-15-15----------|
------------15~~~~-|
--------------------|
--------------------|
--------------------|
----------------------------|
 
Riff 1 2X: (2 раза)
e--------------------------------------------------
B--------------------------------------------------
G--------------------------------------0-----------
D--------------0-----2--0--------2-----------2-----
A--0--0--3--0-----0--------3--3-----3-----3-----3--
E--------------------------------------------------
e------------------------------------------------
 
Em C D Em
e------------------------------------------------
H------------------------------------------------
G------------------------------------------------
D----2-4-5-5-4-7-7-5-4-4-0-2-2-------------------
A------------------------------------------------
E------------------------------------------------
Em C D Em
 
1st part
E----------------------------------
B|--|-14---14-14----12-10-12-----10---------9--10-10-------
G||-14-14-14-14---------------------11----------------7----
D----------------------------------
A----------------------------------
E----------------------------------
--------------------------------------------------------------------
 
(a la Intro ...)
E----------------------------------------------
B----------------------------------------------
G||--4h6-7-6-4-6-7~~~-------9~---------10~-----------------------------
D----------------------------------------------
A----------------------------------------------
E----------------------------------------------
(lead part)
 
E----------------------------------------------
B|-8---------------------10--------------------------------
G||------9-7-9---9~~~----------9-7-9----9~~~---------------------------
D||----7---------------------7-----------------------------------------
A----------------------------------------------
E----------------------------------------------
--------------------------------------------------------------------
---13-12-10-8-10----------13-12-10-8-12---
 
e|-----3----5-----6h8--6-------|------3---5-3-6------10/12----10-10-10-----
B|-3-3----------------------3--|--3 3-----------3--------------------------
G--------------------------------------------------
D--------------------------------------------------
A--------------------------------------------------
E--------------------------------------------------
e|-----3---5-3-6----10----|-3-3--10-8-6-5-3--3--/10--||
B|-3-3-----------3-------------
 
Em Em/G F#7 H7 Em...
A G F# H A G F# E
Em Am D7 G
(1)Темная ночь, только пули свистят по степи,
F Em F#7 H7 Em
Только ветер гудит в проводах, тускло звезды мерцают.
В темную ночь ты, любимая, знаю, не спишь,
И у детской кроватки тайком ты слезу утираешь.
 
Am Dm G7 C
Темная ночь, только пули свистят по степи,
Dm Am H7
Только ветер гудит в проводах,
E7 Am H7E7
Тускло звезды мерцают.
Am Dm G7 C
В темную ночь ты, любимая, знаю, не спишь,
 
 
^^^ - нота звучит 2 секунды
^^^^ - нота звучит 4-5 секунд (compression рулит:))
1----0--1^^^-------0--------------------------------------------
2--3--------------------1---------------------------------------
3---------------------------------------------------------------
4---------------------------3-----------------------------------
5---------------------------------------------------------------
6-----------------------------------------------------------
 
Em Am
(1)Дымилась роща под горою,
B7 Em
И вместе с ней горел закат...
Am
Hас оставалось только трое
B7 Em
Из восемнадцати ребят.
 
 
Am Dm D
(1)Тополя, тополя все в пуху
G C Am
Потерял я любовь не найду
Потерял я любовь и девчонку свою
Вы постойте, а я поищу.
(2)Помню был с той девчонкой давно,
Было в жизни все так хорошо,
 
 
G
Точка, точка, запятая -
D7
Вышла рожица смешная.
Ручки, ножки, огуречик -
G
Появился человечек.
C
 
 
1.
Am
Остыли реки и земля остыла,
G C
И чуть нахохлились дома.
Dm Am C
Это в городе тепло и сыро,
Dm Am C
 
 
Bm
Остыли реки, и земля остыла,
A7 D B7
И чуть нахохлились дома,
Em F#7
Это в городе тепло и сыро,
Bm
Это в городе тепло и сыро,
 
 
сл. Ю. Ряшенцева
 
Am E
На волоске судьба твоя,
A7 Dm
Враги полны отваги,
G C
Но, слава богу, есть друзья,
 
 
текст Ю. Ряшенцева
 
Am () A G A
Hевесте гpафа де Ля-Феp
Am () G F
Всего шестнадцать лет.
F
Таких изысканных манеp
 
 
сл. Ю. Ряшенцева
 
F E
Hас четвеpо. Пока еще мы вместе.
A7 Dm
И дело есть, и это дело чести.
G(G7) C
Девиз наш - все за одного,
 
 
C Am
Приятно вспомнить в час заката
Dm G
Любовь, забытую когда-то
C Am
Полезно вспомнить в час рассвета
Dm E
Слова забытого поэта
 
 
муз.М.Дунаевского
текст Ю.Ряшенцева
Am
Две капли сверкнут, сверкнут на дне,
F E7
Эфес о ладонь согреешь.
Am
И жизнь хороша, хороша в двойне,
 
 
Em C H
Hа волоске сyдьба твоя,
E7 Am
Вpаги полны отваги,
D G
Hо, слава богy, есть дpyзья.
F# H C
Hо, слава богy, есть дpyзья.
 
C F
В центре города большого,
C6 G
Где травинки не растет,
C D7
Жил поэт - волшебник слова,
G7 G7sus4/A G7/H
Вдохновенный рифмоплет.
 
 
C F
В центре города большого,
C G
Где травинка не растет
C F
Жил поэт - волшебник слова,
G C
Вдохновенный рифмоплет
 
 
Dm A7 Dm
Туман,туман,
Gm7 C7 F
Слепая пелена...
Gm Gm7 Gm6 C7
И всего в двух шагах
F A7
За туманами война.
 
 
сл. Булата Окуджавы
кинофильм "Турецкий гамбит"
режиссер Джаник Файзиев
Am E
Жаркий огонь полыхает в камине
E Am
Тень, моя тень на холодной стене...
C D F Am
 
 
Группа "Ногу свело"
кинофильм "Турецкий гамбит"
режиссер Джаник Файзиев
C G
Молчит полумесяц и снова с востока
C G C
Таинственный ветер подул.
C G
 
 
am F С G AM
e---0----------------------------!--1-б-!--0-------------------------------!--3--------!-----------!
h---1----------------------------!--1-о-!--1-------------------------------!--0-----0-!-----------!
g---2----------------------------!--2-й-!--0----------------0-------------!--0---0---!-повтор!
d---2---------------0----2---0-!--3----!--2---------2--------2--3---0-!--0--0----!-----------!
a---0--0--2---3---------------
 
Am Dm
Ты рисковал собой не раз шутя
G C
И знаешь, что такое боль
Am Dm
Ты в пьесе жизни выбрал для себя
E Am
Нелегкую роль
 
 
Em
Ты у меня одна,
E7 Am
Словно в ночи луна,
Em
Словно в степи сосна,
H7 Em
Словно в году весна.
 
 
Вступление: Em | Am | B7 | Em } 2 раза
Em Am
У природы нет плохой погоды,
D7 B7 Em B7
Каждая погода – благодать.
Dm E7 Am
Дождь ли, снег – любое время года
C7 F#7 B7
 
 
Вступление:
Em, Am, H, Em.
Играется перебором.
Em Am
У природы нет плохой погоды,
H7 Em Edim H7/D#
Каждая погода – благодать!
Dm7 E Am
 
 
Em Am H7
Если вы нахмурясь выйдете из дома
H7 Em
Если вам не в радость солнечный денек
E7 A7 D7 G
Пусть вам улыбнется, как своей знакомой
Am Em H7 Em
С вами вовсе незнакомый встречный паренек
 
 
Dm Gm A7 Dm
(1)Вечер тихой песнею над рекой плывет
Dm Gm C F
Дальними зарницами светится завод
D6 Gm C F (A7)
Где-то поезд катится точками огня
Dm Gm A7 Dm
Где-то под рябиною парни ждут меня
 
 
H7 Em Am
Утомленное солнце нежно с морем прощалось,
Am H7 Em H7
В этот час ты призналась, что нет любви.
H7 Em Am
Мне немного взгрустнулось без тоски, без печали.
Am H7 Em H7 Em
В этот час прозвучали слова твои.
 
 
Gm
Вот и стали дни короче,
A7 DD7
От дождей раздулись ночи.
Fm G7
А душа никак не хочет
CC7
это лето отпустить.
 
 
Куплет 1:
Am Dm
Смотришь в глаза ты мне робко и нежно,
G C
Ночь зажигает огни.
F Dm
Белые розы как символ надежды,
E Am
 
 
A#m D#m
Протяни навстречу руки
D#m A#m
И чуть слышно позови.
A#m D#m
И отступит час разлуки
D#m A#m
И настанет час любви…
 
 
C
Xopoшo бpoдить пo cвeтy,
F C
Cкapaмeлькoй зa щeкoю,
Am Dm
И eщё oднy для дpyгa,
G C
Взять c coбoю пpo зaпac,
 
 
Am Dm
Хорошо над Москвою-рекой
G C
Услыхать соловья на рассвете
Am Dm
Только нам по душе непокой
E Am
Мы сурового времен дети
 
 
Как на Лысой горе Чертов камень лежит, Am Dm
Из-под камня того Ведьма-речка бежит. E7 Am
Пусть прозрачна на вид в Ведьме-речке вода, Am G C
Пить не надо ее никому никогда. Dm E
Припев:
В жару и в стужу жгучую, чтоб не было беды, Am Dm G C
Hе пей ни в коем случае ты ведьминой воды. F Dm E Am
Hе зря от солнца спрятана в крапиву и репей, Am Dm G C
 
 
муз. В.Шаинского
Am Dm
Медленно минуты уплывают вдаль,
G7 C7 E7
Встречи с ними ты уже не жди,
Am Dm
И хотя нам прошлого немного жаль,
Am E7 Am
 
 
Музыка В. Шаинского
Am
Пусть бегут неуклюже
E7
Пешеходы по лужам,
Am
А вода - по асфальту рекой.
A7
 
 
Am E7 Am
(1)Я был когда-то странной игрушкой безымянной,
C G7 C
К которой в магазине никто не подойдет.
Am Dm G7 C A7
Теперь я - Чебурашка, и каждая дворняжка
Dm Am E7 Am
При встрече сразу лапу подает.
 
 
слова: М.Либин
музыка: В. Комаров
Вступление: E | C#m | A | H | E
E C#m A
Человек собаке друг (человек собаке друг)
H E C#m A H
Это знают все вокруг (это знают все вокруг)
E F# H
 
Dm E7
(1)Кто ошибется
A7 Dm
Кто угадает
*Dm7 Gm
Разное счастье
C7 F
Нам выпадает
 
 
Dm E7
Кто ошибется
A7 Dm
Кто угадает
Dm7 Gm
Разное счастье
C7 F
Нам выпадает
 
 
Em Am Em
Черный ворон,чтож ты вьешься
E7 Am
Над моею головой?
G G7 C D H7 Em |
Ты добычи не дождешься, | dva raza
C EmB H7 Em |
Черный ворон,я не твой! |
 
 
C D G Em
(1)Долго брёл в темноте я без мира без сна
C D Em
В пустоте суета подгоняла кнутом
Но судьба подарила четыре окна
Привела меня даль в этот дом
(2)Где подруга-трава расстелила постель
А чернявая ночь подложила луну
 
 
C G C
Промчался день и мы его назад не вернем,
C G C
Но плакать и печалиться не стоит о нем,
C
Ведь это угрюмый философ придумал,
F G
Что мы лишь раз на свете живем.
 
 
Am
Это что же такое, то одно, то другое,
Dm
Я как рыба попавшая в сеть,
G
Волокут меня в спешке, выручай , Сыроежкин,
C A7
Не дают даже сны досмотреть,
 
 
Проигрыш: Dm Am Dm Am Gm Dm Dm A
G C Hm B
(1)В незнакомой мне стране
G C Hm B
Я на радио волне
Am D
Если твой услышу голос
Gm A
 
 
Am Dm
Шаланды полные кефали
E7 Am
В Одессу Костя приводил,
Dm
И все биндюжники вставали
E7 Am
Когда в пивную он входил.
 
 
Hm Em
MИlodie d\'amour chantait le c°ur d\'Emmanuelle
F#7 Hm (бас: A|--2--4--5--4--|)
Qui bat c°ur Ю corps perdu
MИlodie d\'amour chantait le corps d\'Emmanuelle
Qui vit corps Ю c°ur dИГu
Партия баса на входе в припев:
Hm Em
 
Bm Em/C#
Крутится диск, поцарапанной старой пластинки,
F#7 Bm
Вальс заиграл, из распахнутых настежь, окон.
Am6 B7 Em
Переплетаются взгляды и руки,
A7 D
Перемешаются краски и звуки.
 
 
Вступление: A7 D | G7 C7 | D F | E
Am7 D7 G7 C
За то, что только раз в году бывает май,
Am Dm G7 C
За блеклую зарю ненастного дня,
Am7 D7 G7 C
Кого угодно ты на свете обвиняй,
Am Dm E7 Am
 
 
Dm Gm
Эх, дороги
C7 F A7
Пыль да туман,
Dm Gm6
Холода, тревоги
A7 Dm
Да степной бурьян.
 
 
Dm Gm C F A
Эх, дороги - пыль да туман,
Dm Gm A Dm
Холода, тревоги да степной бурьян.
Знать не можешь доли своей,
Может крылья сложишь посреди степей.
C F C F
Вьется пыль под сапогами степями полями
 
 
Вся песня на аккорды:
Am C Dm Em
Если бы я мог перемотать обратно
До самых первых кадров
И все пересмотреть замедлив
Прокрутку многократно
Возможно стало бы ясно
И явно заметно с какого конкретно момента
 
 
Припев:
Gm D#
Я боюсь этой тьмы,
Cm
Беспросветной и жуткой!
Gm D#
Оттуда сюда
Cm H7
 
Em
Я в весеннем лесу пил березовый сок,
E7 Am
С ненаглядной певуньей в стогу ночевал,
H7 Em
Что имел не сберег, что любил - потерял.
Am F#7 H7
Был я смел и удачлив, но счастья не знал.
 
 
Hm F# Hm H7
(1)А я милого узнаю по походке.
D A D H7
Он носит, носит брюки галифэ.
Em Hm
А шляпу он носит на панаму,
F# Hm H7
Ботиночки он носит нариман.
 
 
Am E A7 Dm
(1)Я спpосил у ясеня, где моя любимая,
Am Dm E
Ясень не ответил мне, качая головой.
 
Я спpосил у тополя, где моя любимая,
Тополь забpосал меня осеннею листвой.
Я спpосил у осени, где моя любимая,
 
 
Dm7 G7 C7+ F7+ D7 A#7+ E E7
Am E A7 D9
Я спросил у ясеня, где моя любимая.
Hm7-5 E7 Am Am/G D#dim E7
Ясень не ответил мне, качая головой.
Am E A7 Dm Dm/C
Я спросил у тополя, где моя любимая.
Hm7-5 G7 C Edim Dm E E7
 
 
Am E7 A7 Dm Dm7 Dm6
Я спросил у ясеня, где моя любимая.
E7 Am D7 E9-
Ясень не ответил мне, качая головой.
Am E7 A Dm
Я спросил у тополя, где моя любимая.
Dm6 G9 C Dm Fm E-9
Тополь забросал меня осеннею листвой.
 
 
Am E7 A7 D(7) E7sus4b9
Я спросил у ясеня, где моя любимая.
E7 Am Am/G D#0 F#0 E E7
Ясень не ответил мне, качая головой.
Am E7 A7 Dm (Dm6)
Я спросил у тополя, где моя любимая.
(G7add11)G7 C (Cmaj7) Dm Dm7 E7
Тополь забросал меня осеннею листвой.
 
 
Вступление: Am | Am | Am7 | Am | Dm7
Dm7 | F | E
Am
А за стеной обрыв,
Где стонут провода,
Am7
Кругом до края света
Am Dm7
 
 
Вступление: F C | C | Am | Am | F G7 | C
C Am
Бывает все на свете хорошо,
Dm
В чем дело - сразу не поймешь.
F
А просто летний дождь прошел,
G7
 
 
Вступление: C#m | G# | Bm | F#m | F#m6
C#m | Gdim7 | G#7
C#m G#7
Я, признаться, проявил
C#m
Глупость бесконечную,
G#7
Всей душою полюбил
 
 
Соло: 1------------------------------
2------------------------------
3-9-9-8-8-------9-9-8-8-------- } 2 раза
4---------9-9-6---------9-9-6--
5------------------------------
6------------------------------
1----------------------------------------------
2----------------------------------------------
 
Am
Барон Жермон поехал на войну.
C
Барон Жермон поехал на войну.
D
Его красавица жена
C
Осталась ждать, едва жива