Аккорды к песням для гитары

Аккорды песни «Садо-мазо»

Транспонировать аккорды:   ниже   выше
  Em
D|------2-------2-------2-------2---
A|-----2--2----2--2----2--2----2--2-
E|--0-0-----0-0-----0-0-----0-0-----

  Em
D|------2-------2-------2-------2---
A|-----2--2----2--2----2--2----2--2-
E|--0-0-----0-0-----0-0-----0-0-----

  Em
Плюнула огнем и зашипела
D|------2-------2-------2-------2---
A|-----2--2----2--2----2--2----2--2-
E|--0-0-----0-0-----0-0-----0-0-----

  Em              Am
Догорая черная свеча
G|----------------------2-------2---
D|------2-------2------2--2----2--2-
A|-----2--2----2--2-0-0-----0-0-----
E|--0-0-----0-0---------------------

  Em
У тебя лицо невинной жертвы
D|------2-------2-------2-------2---
A|-----2--2----2--2----2--2----2--2-
E|--0-0-----0-0-----0-0-----0-0-----

  Em                 Am
И немного есть от палача
G|----------------------2------|
D|------2-------2------2--2----|
A|-----2--2----2--2-0-0-----0--|
E|--0-0-----0-0----------------|

      Em
Такая типа садо-мазо
D
Просто садо-мазо
C
Вся ты садо-мазо
D6      H
Просто садо-мазо
Em
Даже садо-мазо
D
Сердце садо-мазо
C
Бьется садо-мазо
D6    H    H
Типа садо-мазо

Ты куда летишь, печальный призрак
Вот он я, готический твой принц
Ты выглядишь как труп своей

Собачки,
|-------/5--3---|
|-------(5)(5)--|
|---------------|
|---------------|
|---------------|
|---------------|

Которую насиловал фашист

Такая типа садо-мазо
Просто садо-мазо
Вся ты садо-мазо
Просто садо-мазо
Даже садо-мазо
Сердце садо-мазо
Бьется садо-мазо
Типа садо-мазо

Em
E|----------------5/75----- 
H|--8-5-8-5-8-5-8--------8~~   
                               
                        A      / 2 раза
E|-------------------5/75~~  /
H|--/5-8-5-8-5-8-5-8-------- /

      Em   D      C    D6   H
Какое небо звезды небо звезды
Em   D      C       D6   H
Даже сердце бьется, бьется…


Какое небо садо-мазо
Просто садо-мазо
Звезды садо-мазо
Просто садо-мазо
Даже садо-мазо
Сердце садо-мазо
Бьется садо-мазо
Типа садо-мазо
 

Используемые аккорды