Аккорды к песням для гитары

Аккорды песни «Со щитом иль на щите»

Транспонировать аккорды:   ниже   выше
                                      Г. Самойлов
e-------------------0---|

   Am
e|-----0-4~----5-0-----0-4~-----5---|
b|---1---------------1--------------|
g|-2---------------2----------------|

   Am              G#m
e|-8-----8-------8-7-----7--------0-|
b|--10---------------9--------------|
g|-----9---------------8------------|

   Am
e|-----0-4~----5-------0-4~-----5---|
b|---1---------------1--------------|
g|-2---------------2----------------|

   Am              Bb
e|-8-----8-------8-9-----9----------|
b|--10--------------11--------------|
g|-----9--------------10------------|

  Bm
Где наша злая любовь?
     Am7
На дороге без начала, да на карте без концов,
Gm             Am
       или нигде...
   Bm         
А может мы вообще ее увидели во сне,
   Am5+
Но мы ее найдем, ее вернем, ее себе
Gm7             Am
      Иль со щитом,
     E    Am
Иль на щите,
     E    Am
Иль со щитом,
     E    Am
Иль на щите.

e-----------17-------- 

Используемые аккорды