Аккорды к песням для гитары

Аккорды песни «За холодным стеклом(2 версия)»

Транспонировать аккорды:   ниже   выше
Intro:
(можно также и на припеве)
играется перебором по струнам:

        Am             F              E
1---------0-3-0--------------------------0---
2-----1-3-------1---------1-1----------3-----
3--------------------------------------------
4---2------------------3-------------2-------
5-0------------------3-------------2---------
6--------------------------------------------

        Am             F              E
1---------0-3-0------------------------------
2-----1-3-------1---------1-1----------0-----
3----------------------------------------2---
4---2------------------3-------------2-------
5-0------------------3-------------2---------
6--------------------------------------------

играть 2 раза
затем 1 раз Am - 5 4 2 струны, там сами разберетесь.

куплеты и припев можно играть таким перебором:
Dm - 4 3 1 2 струны    E, Am, C и F - 5 4 2 3 струны  
а можно и боем

Dm     E   Am       C      F
 Тает снег, опять пришла весна,
E       Am          C       F        E       Dm
 Но ты одна, не придет, он больше не придет,
E       Am        C    F        E     Dm
 Никогда твой солдат  осталось от него
E       Am          C         F    E    Am
 Только взгляд этот взгляд  и нежное письмо


Припев:
Am          C             F    E      Am
       За холодным стеклом его глаза
       Упадет на портрет твоя слеза
       За холодным стеклом мальчишка тот,
       Тот который уж больше не придет



 Ты ждала, ты так его ждала,
 Как никто не спала, ночами не спала,
 Без него  на губах  застыл немой вопрос
 Почему, ну почему, ты создана для слез 

Используемые аккорды