Аккорды к песням для гитары

Аккорды песни «Мой театр»

Транспонировать аккорды:   ниже   выше
C            Dm            G             C
E|----------0----------1----1--------3-------------0-----0-----|
B|*----1-0-1--1------3---3----3---3-3---3---3-----1---1-----1-*|
G|---0---------0---2------2-----0--------0-----0-------0-------|
D|---------------0---------------------------------------------|
A|*-3-----------------------------------------3---------------*|
E|----------------------------3--------------------------------|

Затем между куплетами есть перебздрык типа:
    F       G
E|-------1-------3--|
B|*-----1-------0--*|
G|-----2-------0----|
D|----3-------0-----|
A|*--3-------2-----*|
E|--1-------3-------| 2 раза

Мой театр - мой каприз,
Здесь нет кулис.
И мой зрительный зал -
Это я сам.
И в моей труппе сотни лиц,
И в каждом я узнаю себя.
При свете лунных брызг
Я играю жизнь.

Мой театр - мой каприз,
И кто вошел сюда - тот уже артист.
Здесь тысячи фигур
ведут игру.
Здесь кто-то виноват, кто-то зол, кто-то рад,
Кто-то счастлив, кто-то просто слаб.
Театр - мой мост,
Я слышу смех звезд. 

Используемые аккорды