-1 +1
-1 +1
-1 +1

Аккорды Аукцыон Осколки (версия 2)

[Вступление]:
* такой резкий бой на аккорде Am:

E-|-5-5-5-5--5-5-|-
B-|-5-5-5-5--5-5-|-
G-|--------------|-
D-|-7-7-7-7------|-
A-|-7-7-7-7------|-

* потом играется бас примерно такой:

D-|---2-3---3-3---|---2-3---3-3---|-
A-|-0-----0-----3-|-0-----0-----3-|-

* потом вступает такое вот соло:

D-|-7-x-5-x-8-8-8-8---5-|-7-x-5-x-8-8-8-8---5-|-
A-|-----------------7---|-----------------7---|-

* вторая гитара:
* (табы смещены, чтоб было понятно, где играть)

H-|---------6-6-6-6-5---|---------6-6-6-6-5---|-

* потом опять резкий бой на A, затем под бас поётся.
* если играть на одной гитаре, то можно как-либо обыгрывать
* аккорды A и A#, чтоб интересней было ;)

 Am A# Am
Сон, приснилось мне,
 A# Am A# Am
Что я воюю в чужой стране...

* проигрыш после этих строк (примерно):

 Am A# Am A#
E-|-5--5-5--------5--5-5--------|-
H-|-5--5-5--8-6-5-5--5-5--5-----|-
G-|-------------------------7-5-|-
D-|-7-------------7-------------|-
A-|-7-------------7-------------|-

 Am A# Am
Враг, неравный бой,
 A# Am A# Am
Я ранен в голову, я герой...

* тут опять проигрыш

Припев (аккорды играть по два удара каждый)

 F5 C5
Но вот
 H5 D5
Чувствую я
 A5 D5 A5 C5
Это конец

 F5 C5
Но вот
 H5 D5
Я ухожу,
 Am
Осколки
 Dm
Девичьих сердец
 C5 E Dm
Хрустят, у-у-у,
 Am
У меня под ногами!

* (далее проигрыш на басу, следующий куплет подыгрывается
* отрывистым боем на гитаре)

Взрыв! И всё в огне!
Я в красной шапке, я на коне.
Сон, во сне борьба,
Судьба народа - моя судьба!

Припев.

* далее идёт длинный проигрыш, на концертах там имеется
* примерно такой момент:

E-|-5--5-5--5-6--3--|-5--5-5--5-6--3--|-
B-|-5--5-5--5-6--3--|-5--5-5--5-6--3--|-

* так много раз, потом

E-|-12--12-12--12-13--10-|-12--12-12--12-13--10-|-
B-|-10--10-10--10-11--8--|-10--10-10--10-11--8--|-

* опять много раз...
* перед финальным куплетом играется так (на альбомной
* версии там ещё такой визг красивый "А-а-а, ха-ха!")

A* A#*
A* A#*

* и идёт финальный припев.

-------
Аккорды:

A: x-7-7-6-5-5 или x-7-7-x-5-5
A#: x-8-8-7-6-6
F5: 1-3-3-x-x-x
C5: x-3-5-5-x-x
H5: x-2-4-4-x-x
D5: x-5-7-7-x-x
E: 0-2-2-1-0-x
Dm: x-0-3-2-3-1
A*: x-0-2-2-2-0
A#*: x-0-3-3-3-0
Пожалуйста, оцените подбор:
Отлично

Используемые аккорды