-1 +1
-1 +1
-1 +1

Аккорды Басков Николай Ночь

Вступление:	
1------------------------0----------
2--------------2--------------------
3------0------------0-------0------- } x2 раза A7
4----------2------------------------
5--0--------------------------------
6-----------------------------------
 
1------------------------0----------------0-
2--------------3--------------------3-------
3------2----------------------2------------- } x2 раза
4-------------------------------------------
5--1----------------------------------------
6-------------------------------------------

A Dm
На- на-на нэй…
 A Dm
Нагая ночь в тиши немой, светила тайна чарующей луной, 
в объятьях снов кружила.
 A Dm
В душе своей храня покой, ты уводил меня куда-то за собой, 
любовь заворожила
 A
наааааааааааааас.
 A
Песни цыган нам пели-пели ветры
 Am
О морэ мио, любовь твоя огня сильней, в ней дыханье миссии.
 Am A
О морe мио, в душе твоей вся бездна дней, в ней и сила 
и бессилье, о моооре.
 A Dm
Не знала я, как ночь сильна, но верю не подвластна ей 
любовь моя, рукой отводя беду,
 A Dm
Сплету своей судьбы узор и твой к себе навеки притяну 
я взор, В даль за тобой
 A
пойдуууу.
Песни цыган нам пели-пели ветры.
О морэ мио, любовь твоя огня сильней, в ней дыханье миссии
О морe мио, в душе твоей вся бездна дней, в ней и сила 
и бессилье, о морe.

Дальнейшие вокальные вариации Николая и Дианы укладываются 
в смену аккордов E и Am
Пожалуйста, оцените подбор:
Отлично

Используемые аккорды