Аккорды к песням для гитары

«Белый Орел» аккорды

Hm Em F#m
Посмотришь на небо - там звезды одни
Hm Em F#m
Мне гроздья салюта напомнят они.
D A
Кому-то напомнят они, может быть,
Em F#m
Принцессы Дианы жемчужную нить.
 
Am Dm
Посмотришь на небо - там звезды одни
Am Dm
Мне гроздья салюта напомнят они.
G C
Кому-то напомнят они, может быть,
F E
Принцессы Дианы жемчужную нить.
 
 
Рекомендуемый рисунок:
Бой-(вниз-вниз-глушка-вверх-вверх-вниз-глушка-вверх)
Am
Все кончено, прощай, мир желаний и чар,
Dm
Пусть роза отцвела и дурманит анчар,
E7
Где я тебя люблю и страдаю, любя
 
Em Am Em H7
Не пройти по жизни Боже,по верхам скользя
Em
Боже, то что было можно,стало вдруг нельзя
Am Em H7
У тебя прошу я Боже, накраю земли
C H7
Разве что любви, развечто любви
 
Вступление: Hm Hm+5 Hm7 Hm+5 > 2 раза
Em F# Hm
Вот и все, я тебя от себя отлучаю,
Em Em7 A D
Вот и все, я себя от тебя отучаю.
H7 Em A D
Отучаю от встреч, ровно в пять не встречаю,
Em F# Hm
 
 
Вступление: Dm E Am *Fmaj7 Dm E Am
 
Am Dm
Я помню эту ночь в безымянном баре,
G Em
Плывущую луну в ночных небесах,
E
Бокал вина в руках твоих
 
Am Dm
Самой нежной любви наступает конец
G C E
Бесконечной тоски обрывается пряжа.
Am Dm
Что мне делать с тобой и с собой наконец
E Am
Как тебя позабыть, дорогая пропажа.
 
Am fill
1-------------------------------------
2---------------------5--3-------1---
3----------------3--2--------2-------
4-------5--3-------------------------
5|--------0--7--5-------------------------------
6------------------------------------
intro.: Am fill G Dm C E Am Dm Am E Am
 
Вступление:
E||--7--6--4---------------|-5--4---------------|
H||------------7--5--4---2-|-------7---5--4--2--|
E||--7--6--4-----------------|-5--4-------5-4--7-5-4--9-7-5--|
H||------------7--5--4---2---|-------7-----------------------|
Am
Как мы любили когда-то светло,
Dm
 
Вступление: C#m | G# | C#m | F#m | G# > 4 раза
F#m G# C#m
Любовь такая лишь раз бывает
F#m G# C#m
Мы не умели ее хранить
И ты в разлуке ломаешь руки
А я стал пить, чтоб про все забыть
F#m H
 
 
A#m C
Конечно есть на свете счастье
Fm
И есть любимцы у него
C# D#
Конечно есть любовь, но чаще
G# F
Не для двоих, для одного
 
 
Am-Dm-D6-E-Am
Am
Как безумна порой весна.
Dm
Как горяч новогодний снег.
D6 E
Как ошибки прочна цена,
Am - F - G
 
1|----------9-----------------------------------9---------------------
2|---9--8-9----10-----------9--7---------9--8-9----10----7------7-----
3--------8--7-8------9-8--6---------------------9-8---9---
4---------------------------------------------------------
5---------------------------------------------------------
6---------------------------------------------------------
1|----------9-----------------------------------9--7------------------
2|---9--8-9----1
Hm Em
Ее не всегда среди женщин земных угадаешь,
A F#
Но если увидел, то глаз уже не оторвать,
Hm Em
И дрогнет душа, потому, что ты даже не знаешь,
Hm F# Hm
Чего и когда можешь ты, от нее ожидать...
 
 
Am H7 Em C
Облетела листва, у природы свое обновленье.
Am H7 Em
И туманы ночами стоят и стоят над рекой.
Am H7 Em C
Твои волосы, руки и плечи твои - преступленье,
Am H7 Em Am
Потому что нельзя быть на свете красивой такой.
 
Dm Gm
Отшумела листва
A7 Dm B
У природы свое обновленье
Gm
В свете лампы ночной
A7 Dm
Твои волосы сводят с ума
 
 
Белый орел (Слепой сын)
Вступление...
1------------------------------------------
2|---2---4-1---4---6-2---6---7-4---6-2---4-1-------1---
3----------------------------------2-3-----
4------------------------------------------
5------------------------------------------
6------------------------------------------
Gm
Ты не знаешь себе цены
Ты не видишь его вины
Ты блестишь золотым кольцом
В сердце маленьком и пустом
Ты не хочешь никак понять
Что ему на тебя плевать
Ты живешь в облаках мечты