Аккорды к песням для гитары

«Бони Нем» аккорды

Intro
Riff 1
Gtr1 and Gtr2
E||--------------------------|
B||----*-*-*---*-*-*---*-*-*-|
G||----7-6-5---7-6-5---7-6-5-|
D||----5-4-3---5-4-3---5-4-3-|
A||--------------------------|
 
Tuning E
Riff A
Intro (acoustic)
Gtr 1 x4
E|---10-------14------------10-------14------------|
B|*-----11-------15----15------11-------15----15---|
G|---------9--------14------------9--------14------|
D|-------------------------------------------------|
Tuning E
Intro
Riff A
Gtr 1
E||--0-----0------0-----0-------0-0-------1-----1------1-----1-------1--0-|
B||--1-----1------1-----1-------1-1-------1-----1------1-----1-------1--1-|
G||--2-2-2-2-2-2--2-2-2-2-2-2---2-2-2-2---2-2-2-2-2-2--2-2-2-2-2-2---2--2-|
D||--2-----2------2-----2-------2-2-------2-----2------2-----2-------2--2-|
Tuning Eb
Intro (clean electric)
Gtr 1 and Gtr 2 x6 x2 x2
E||----------------0-------------|----------1-0-1------|-----------------------|
B||*--------1--------1----------*|*-------3-------3---*|*--------------------*-|
G||-----------2--------2---------|------2-----------2--|-----0------0----------|
D||-------------2--------2-------|----0----------------|-------0------0---0----|
A||*-----0----------------------*|*-------------------*|*--------2------2----*-|
 
гитару строим в ре (D A F C G D)
intro and main riff:
D|------------------------------------|
A|------------------------------------|
F|-7-7--------------7-7---------------|
C|-7-7-----5-88-7---7-7-------5-------|
G|-5-5---8----------5-5---8-7---8-7-5-|
D|------------------------------------|
 
Tuning D
Intro
Gtr 1
E|------------------------------------------------------|
B|------------------------------------------------------|
G|------------------------------------------------------|
D|------------------------4—(4)-------------------4—(4)-|
A|-----/-⁄--3-(3)---------2-(2)---------3—(3)-----2-(2)-|
 
Tuning D
Intro
Gtr 1
E|-----------------------------------------------------------------------------|
B|-----------------------------------------------------------------------------|
G|-----------------------------------------------------------------------------|
D|---5-(5)----------------5-(5)------------------5-(5)---------------5⁄--2-(2)-|
A|---3—(3)--3-(3)—-5-(5)--3-(3)----3-(3)--5-(5)--3-(3)---------------3⁄--0-(0)-|
 
Intro
Gtr 1 and Gtr 2
­­­___ a way ____ Words ...
E|--------------------------------------|
B|--------------------------------------|
G|--------------------------------------|
D|----------------------------------5---|
A|-----5-5-5-5-5-5-5-5-5-5-5-5-5----3---|
Tuning D
Intro
Gtr 1
E|---------------------------------------------------------|
B|---------------------------------------------------------|
G|---------------------------------------------------------|
D|---------------------------------------------------------|
A|----7-7--5-(5)---5-5--3-(3)----7-7--5-(5)-----5-5--3-(3)-|
 
Обозначения:
/
/ - бенд, - возврат, full - на тон, 1/2 - на полтона,
~ - вибрато, / - слайды, h - хаммер, р - пул, pm - глушение правой рукой.
Над табулатурой проставлены доли.
intro
1 2 3 4 5 6 1 2 3 4 5 6 1 2 3 4 5 6 1 2 3 4 5 6
clean gtr
Album: Ни «Бэ», ни «Мэ» или в мире животных
Tuning D
Intro
Riff A1
Gtr 1 (clean electric) x10
|--0----------1--x-3-3--x-----------|
||*-----1--------1--------1--x-3-3--x----------*|
||--------2--------2------2--x-4-4--x-----------|
 
Tuning D
Intro
Gtr 1 and Gtr 2 (clean electric) x4
||----0--0--x---0--0--0--x---2--2--x---4--4--4--x-----||
||*---1--1--x---1--1--1--x---3--3--x---5--5--5--x----*||
||----2--2--x---0--0--0--x---2--2--x---4--4--4--x-----||
||----2--2--x---2--2--2--x---0--0--x------------x-----||
||*---0--0--x---3--3--3--x---------------------------*||
DISTORSION:
4|----3---5---3---5---------8--------5-------|
5|----3---5---3---5---------8--------5-------|
6|----1---3---1---3---------6--------3-------|
3----------------------5----|
4|----5----------------------------5----|
5|----5----------------------------3----|
6|----3---------------------------------|
F#5
Яблоки на снегу
Розовое на белом
E5 А5
Что же нам с ними делать
В5 С#5 C#5 C#5
С яблоками на снегу
Припев:B5