Аккорды к песням для гитары

Аккорды песни «Felicita»

Транспонировать аккорды:   ниже   выше
Intro

Riff 1

Gtr1 and Gtr2

E||--------------------------|
B||----*-*-*---*-*-*---*-*-*-|
G||----7-6-5---7-6-5---7-6-5-|
D||----5-4-3---5-4-3---5-4-3-|
A||--------------------------|
E||--------------------------|
(* - during the song, guitar1 plays lower notes, guitar2 - upper)

Riff 1a

Gtr1 and Gtr2 x7
E||-------------------------------------------------------|
B||*-------------------------------------------*--*-*---*-|
G||---------5------------5------------5--------/7-6-5-----|
D||---------5------------5------------5--------/5-4-3-----|
A||*--3-3-3-3-3-3-—3-3-3-3-3-3--3-3-3-3-3-3-------------*-|
E||-------------------------------------------------------|

E|-----------------------------------|
B|-----------------------------------|
G|---------5------------5--------12~-|
D|---------5------------5------------|
A|---3-3-3-3-3-3-—3-3-3-3-3-3--------|
E|--------------------------------3~-|

p.m. . . . . . . . . . . . . . . . . . . . . . . . . .

Verse

Riff 2

Gtr1 and Gtr2 x2
E||---------------------------------------------------|
B||*--------------------------------------------------|
G||----------5------------5------------5------------5-|
D||----------5------------5------------5------------5-|
A||*---3-3-3-3-3-3-—3-3-3-3-3-3--3-3-3-3-3-3--3-3-3-3-|
E||---------------------------------------------------|
p.m. . . . . . . . . . . . . . . . . . .

Gtr1 and Gtr2 x2

E||---------------------------------------------------|
B||*--------------------------------------------------|
G||----------7------------7------------7------------7-|
D||----------7------------7------------7------------7-|
A||*---5-5-5-5-5-5-—5-5-5-5-5-5--5-5-5-5-5-5--5-5-5-5-|
E||---------------------------------------------------|
p.m. . . . . . . . . . . . . . . . . . . 

Используемые аккорды