Аккорды к песням для гитары

Аккорды песни «Kolorowe Jarmarki»

Транспонировать аккорды:   ниже   выше
Tuning Eb

Intro (clean electric)
Gtr 1 and Gtr 2 x6 x2 x2
E||----------------0-------------|----------1-0-1------|-----------------------|
B||*--------1--------1----------*|*-------3-------3---*|*--------------------*-|
G||-----------2--------2---------|------2-----------2--|-----0------0----------|
D||-------------2--------2-------|----0----------------|-------0------0---0----|
A||*-----0----------------------*|*-------------------*|*--------2------2----*-|
E||------------------------------|---------------------|--3--------------------|

Gtr 1 and Gtr 2 x2

E|----------------------|---------1-0-1---------------3----------------0-------|
B|*------------0-------*|-------3-------3-----------3---3------------1---1-----|
G|------1--------1---1--|-----2-----------2------------------------2-------2---|
D|--------2--------2----|---0--------------------0---------------2-----------2-|
A|*--2------2----------*|----------------------2-----------0-2-3---------------|
E|----------------------|--------------------3---------------------------------|

Gtr 1 and Gtr 2 x2
E|------------1--------|---------1-0-1----------------0--------|---0-(0)-|
B|----------1---1------|*------3-------3----------------0-----*|---0—(0)-|
G|--------2-------2----|-----2-----------2---------1------1----|---1—(1)-|
D|------3-----------3--|---0---------------------2----------2--|---2—(2)-|
A|----3----------------|*----------------------2--------------*|---2—(2)-|
E|---------------------|---------------------0-----------------|---0—(0)-|

Gtr 1 and Gtr 2

E|------------0---------0-(0)----------------------------5-(5)-|
B|----------1---1-------1—(1)----------------3/5------5-(5)----|
G|--------2-------2-----2—(2)---------5h7h9---------5-(5)------|
D|------2-----------2---2—(2)--5h7h9---------------------------|
A|----0-----------------0—(0)----------------------------------|
E|----------------------0—(0)----------------------------------|

Riff A

Gtr 1 and Gtr 2 (distortion)

Kolorowe jarmarki ____
E||----------------------------------------------------------------------------|
B||----------------------------------------------------------------------------|
G||----------------------------------------------------------------------------|
D||----------------------------------------------------------------------------|
A||------7-----------------5-----------------2----------------7----------------|
E||------5-5-5-5--555-555--3-3-3-3--333-333--0-0-0-0-000-000--5-5-5-5--555-555-|

Gtr 1 and Gtr 2

E|----------------------------------------------------------------------|
B|----------------------------------------------------------------------|
G|----------------------------------------------------------------------|
D|---7------------------------------------------------------------------|
A|---5-5-5-5--555-555--2-------------------------------------2----5---6-|
E|---------------------0-0-0-0--000-000---555-555-555-555----0----3---4-|
p.m. . . . ... ... . . . ... ... ... ... ... ...

Gtr 1 and Gtr 2
E|------------------------------------------------------------------|
B|------------------------------------------------------------------|
G|------------------------------------------------------------------|
D|------------------------------------------------------------------|
A|--------7-----------------5-----------------2-----------3-2-0-(0)-|
E|--------5-5-5-5--555-555--3-3-3-3--333-333--0--0-0-0-0------------|
p.m. . . . ... ... . . . ... ... . . . .

Gtr 1 and Gtr 2
E|-----------------------------------------|
B|-----------------------------------------|
G|-----------------------------------------|
D|------------------------9----------------|
A|------7-----------------7-7-7-7--777-777-|
E|------5-5-5-5--555-555-------------------|
p.m. . . . ... ... . . . ... ...

Riff B

Gtr 1 and Gtr 2 x3

E||--------------|-----------------------|-----|
B||--------------|*---------------------*|-----|
G||--------------|-----------------------|-----|
D||--------------|-----------------------|---⁄-|
A||--------------|*---------------------*|---⁄-|
E||--5555--5555--|----5555--5555--5555---|---⁄-| 

Используемые аккорды