Аккорды к песням для гитары

«Brainstorm» аккорды

6|5--3--1--0|
Am, G, Dm, E
Am
me, i\'m singing
G
me, i\'m riding
Dm E
to the place where dreams are hiding
 
 
Hm
Nothing is always
F#
And nothing is forever
G
But I have a moment
F#m F# Hm
A moment to share with you
 
 
C G F Em Am F G
C G
I may seem wise I may seem old
F Em Am F G
Feels like I just came into this world
C G
I beg and lie and then regret,
F Em Am F G
 
 
Em D Em
More or less
D Am D Am
Everyone has a mess
D Em D Em
In their hearts and heads
D Am D Am D
But we are searching for hapiness, hapiness
 
 
Вступление: Asus4 A x2
D Bm
Billions of stars are falling down
F#m
without touching the ground
G D
We shine thru the night
And when you fade away with a smile
 
 
Intro: Am | G | F | E
3, 2, 1 (Three, Two, One)
Am
last train has gone
G
what about us
and all the letters
E Am
 
 
Chorus :
Hm Em F#m
come, oh, come early i’m afraid of getting colder, colder
Hm Em F#m Em Em D A
keep the night burning to shine our love always, always
Verse 1:
Hm
pictures on the wall her pictures on my wall
 
 
intro:
E||------------0--------------0------------0-------------------0-------------------0-||
B||--------0-------------0------------0----------------0-------------------0---------||
G||----3-----------3------------3--------------3-------------------3-----------------||
D||----------------------------------------------------------------------------------||
A||----------------------------------------------------------------------------------||
E||--------------------
 
Em Bm
Just like the sun
D A
I tried to touch but it?s freezing
Em Bm
You are my gun
D A
You know, you can choot me, it?s easy
 
 
Intro: Dm C Am > 4x
Dm C Am
Man smagi bij lidz asaram,
Man bij’, ka zaudetu es pratu
Te jutu es, kads klusinam,
Dm B C
Pie manas gultas naca klat(u).
Un noliecas ka pavasars,
 
 
Intro x4
C Am
Verse
C Am
Viss sakas ar kliedzienu
C Am
Ar rupjas maizes riecienu
F G
 
 
Intro:
e|--------2--------2---------2---------2-----|
B|-----3--------3---------3---------3--------|
G|--2--------2---------2---------2-----------|
D|-------------------------------------------|
A|-------------------------------------------|
E|-------------------------------------------|
Piano, arranged for guitar (played after intro):
 
Intro:
Em-A-Em-A-Em-A-G-A-A
Em-A-Bm-Bm
Em-A-Bm-Bm
Em-A-Bm-Bm
Em-A-Bm-Bm
Em Bm
Like ships without anchors
 
 
C F C F
Es uzzīmēju ziemu
C F C F
Man beidzās baltā krāsa
C F Am
Es uzvilku apli uz sienas
F G F
Tas tagad būs mana māsa
 
 
Intro :
Em A Hm G
E:----------------------------------------------|
B:----------------------------------------------|
G:--7--4--7--4----7--4--4-------------------7---|
D:-------------------------7---5--4-5-7-5-4-----|
A:----------------------------------------------|
E:----------------------------------------------|
 
F Dm - C
My friends gonna call me: hey dreamer
Am Dm
The stars you are watching are so far
Bb C Am Dm
Tonight I know I will get there
Bb C
By plane or by bus - right to my star
 
 
Am
A silver moon is shining
My ship is on it’s way
I don’t know if I’m hiding G
And what’s the game that I play
A silver moon is shining
My ship is on it’s way
F
 
 
G/C x55430
F x33210
ONLINE
Am
I\'m reading your letters
F
I hope you are mine
G/C F
 
 
INTRO:
EI--------------------------------------------------I
BI---------------5--5-5-----------------------------I
GI---4-6-4-6-7------------7-7--6--4-----------------I
DI--------------------------------------------------I
AI--------------------------------------------------I
EI--------------------------------------------------I
EI--------------------------------------------------I
 
C F (x4)
C F C F
Someone wants her body,
C F C F
Someone wants her mind,
Am Em
And someone tells the stories
G Dm F
 
 
C
Good morning My Goodness and Majesty!
F
Good morning! I´m a local detective
Am Dm
And I search for those who say that I´m not affective
C
Good morning My Sweet old memories!
 
 
C G
Lai no kaadaam taaleem naacis
F Em Am F G
Liekas tiko elpot saacis
C G
Starp divaam sauleem izveeleeties
F Em Am F G
Spozhaako un neapdedzinaaties
 
 
Intro: Asus4 A x2
D Hm
Billions of stars are falling down
F#m
without touching the ground
G D
We shine thru the night
And when you fade away with a smile
 
 
G---C-G---C - вступление
1.
G---C-G---C
D--C--D--G
Em--C--Em--C
Припев:
D--C--D--G
G---C-G---C
 
 
Intro: H7
Em H7 Em
I saw the sunrise deep in hell
H7 Em H7 Em
I saw heaven in the cell
H7 G D C H7
I saw the touch, i saw the smell, well, well
Em H7 Em
 
 
Bm
It\'s like a thunder without rain
D
Or like a week without sunday
A
Or like a book without last page
Em
You want to buy and have to pay
 
Em
Hey, honey, hey
Say what you wanted so long
C
Let your tin drums play
Hm
Let your tin drums play
Em
 
 
F C Dm Am
Just for one short day, please, let us go, I pray
Bb F C
To the end of the world, to some place to get far, far away
Where the evil give in and has to lose face
but the rest warm their hands by the fireplace
Like at the dawn of time - people in dugouts and caves
Dm Bb F C
 
 
3x Intro:
C C Dsus2 Dsus2
e --------0--------0-----------0-----------0---------
B ------1--------1------- ---3-----------3-----------
G ----0--------0----------2-----------2--------------
D ----------------------0-----------0----------------
A --3--------3---------------------------------------
E ---------------------------------------------------
 
D G
I\'m grateful to see,
Bm A
That you were listening to me
D G
Weekends come and go away
Bm Em
Weekends are not my happy days
 
 
E||------------------|-------------------|-----------------|--------3-3-2----||
B||-----0-2-0-2-3-|-5--5-5-3-3-2-0-|----0-2-0-2-3-|-5--5-0-------3--||
E||------------------|-------------------|-----------------|--------3-3-2----||
B||-----0-2-0-2-3-|-5--5-5-3-3-2-0-|----0-2-0-2-3-|-5--5-0-------3--||
Вступление - Em A x 3
Em A G A x 1
Em A Hm x 4
Куплет
 
G F
Я обниму тебя крепко-крепко.
G F
Давай замрем и глаза закроем.
G F
В эфире столько помех сегодня.
G F
Мы помолчим и волну настроим.
 
 
Вступление: Am | F | Dm | E
Am G
День проснулся, город дышит,
Dm E
Мы уйдем, пока никто не слышит.
Am G
Ты - к рассвету, я - к закату:
Dm E
 
Am
Гори-гори ясно,
C G
Чтобы светило и не погасло
К чему эти числа
Дням бы добавить немного смысла
F
Ты гори без гари
 
Hm A
Это культ-он умеет,он умеет жать на пульт…
Hm
Пиво,телик-остальное не волнует…
A
В эфире Монца!
Hm F#m D E
Это не тянет даже на бронзу!
 
 
Cm
Дети на санках,военные в танках
G
Едут и едут с утра спозаранку.
Cm
Мимо,мимо,неостановимо,
G Cm
И так повсюду от Москвы до Крыма.
 
 
Вступление: E | C#m7 | A H | E
E C#m7
Воздух искрит, и просто поверить,
A Hsus4
Лопнет, как мыльный пузырь,
E
Самый страшный кошмар.
Вспыхнет в груди, но не согреет,
 
 
Gm Dm
Там,где был город-море глотает пену.
Там,где был воздух-кто-то построил стену.
Там,где был город-море глотает пену.
Там,где был воздух-кто-то построил стену.
Кто-то построил стену.(2 раза)
Gm
Все изменилось…
 
 
Hm
Я буду кнопкой вызова в твоем телефоне.
И с таким телефоном ты всегда будешь в зоне.
A
Честной точкой в конце предложения,
G
Вечнозеленым сигналом по ходу движения.
Hm
 
 
e:-----5-----5-----3-----3-----3/5 (3)---- -----10-----10-----8-----8-----8/10 (8)----
h:---3-----3-----3-----3-----3------------- ---8------8-------8-----8-----8--------------
g:-4-----4-----4-----4-----4--------------- -9------9-------9-----9-----9----------------
На столе моем стоит
В рамочке картинка
На картинке я и ты
Нету лучше снимка
А ещё там есть июнь
Am C F Em
Где-то там, один далеко пытаюсь я заснуть и согреться
Am C F Em
Знаю, сейчас мне так нелегко, вдали от тебя мое сердце
Am C F Em
Не в силах забыть ту звездную ночь, пляж и все, о чем мы мечтали
Am C F Em
Но унесли нас волны от берега прочь и замок наш песочный сломали
 
 
BrainStorm - латышская брит-поп, поп-рок группа. История BrainStorm это история лучших друзей, которые росли вместе, учились в одной школе, жили одними и теми же мечтами и вместе выполнили их. Эти ребята приходят из уникального поколения. Они родились в Латвии, которая тогда была частью гигантского Советского Союза. После того, как BrainStorm завоевала сердца любителей музыки в родной Латвии и там их имя стало нарицательным группа попыталась заполучить аудиторию за пределами своей родины. И им это удалось. Группа записала 17 альбомов.