Аккорды к песням для гитары

«Черный Кофе» аккорды

Intro:
Dm Bb*
e|--(1)------------1---------------0----(0)----------------(0)---------------| х
H|--(3)---------------------------------(3)--------3-------(0)----3—2--------| 2
G|--(2)-----2------------------2--------(0)-----0-----0----(0)---------0-----| р
D|--(0)--0------------0---2—3-----------(3)----------------(0)------------2--| а
A---------------------------(1)--1-------------(0)
 
Em D
Празднуй вечер, покуда трогай губы, еще не поздно,
Am H7 Em
Но уже истекает минута, окончательно ясен исход
По дороге пустой, морозной, мимо кладбища в темном поле
Против силs своей и воли кто-то первым за полночь шагнет.
Вздрогнет воздух тревожно и возникнет вдали застава.
Все, что хочешь - покуда можно - каждый нищий однажды богат.
 
E Am G Am
Брожу по городу один
E Am G Am
Среди огней, среди машин
E Dm E
В зеркальном облике ветрин
Am
Виден проем
 
 
5 лад 5 лад
Am7 X---|---|---|- Dm7 X---|---|---|- Hm7 и Em7 получаются при
X---|---|---|- X---|---|---|- сдвиге Am7 и Dm7 соотв.
X---|---|---|- |-0-|---|---|- на два лада
|-0-|---|---|- |---|---|-0-|-
|---|---|-0-|- |---|---|---|-
|---|---|---|- X---|---|---|-
Am7 Hm7 Am7 Hm7
 
Riff E:
---------------
---------------
---------------
||------5-----5-----7-----5-----5/7----
||------7-----7-----9-----7-----7/9----
||-0-0----0-0---0-0---0-0---0-0--------
Riff A:
 
Am F
Жизнь не вернешь. Вольному - воля
Dm Am
Только пройдешь снова вдоль поля
Am F
Там где ты рос тяжкая доля
E7 Am
Видеть погост возле берез
 
 
Am E7
Где-то в слезах твоя душа
F E7
Ищет себе дорогу
Темной тропой в холод ночной
В сердце огонь тревоги
Припев:
F E7 F E7
 
 
Am
Облик нежный, стан твой стройный дьявол во плоти.
Am
Женщина, опять ты встала на моем пути
Dm
И сознанье помутнело, боже упаси
Am
Нет никто меня не сможет от тебя спасти.
 
 
Em Dm Am
Ветер надежды ворвался стремительной птицей
Em H
Верю как прежде в тот сказочный сон, что мне сниться
C D Em
Пасмурный день прояснится
B C A7
Свет над землей воцарится
 
 
Вступление. Затем перебором.
------------0---------0-1---7---5-7-5-3-----------0-------7---12-----------
-----1-0------0-1---3-----3-----------------1-0-----0-1---7---12-----------
---2--------------------------7-----------2-------------4-7-9-12-----------
------------------0--------------------------------------------------------
-0--------------------------------------0----------------------------------
------------------------------------------------------
 
Dm Bb C
Снова, снова полный вперед:
Dm Bb C Dm
Цель Святая в путь нас зовет!
Bb Dm
На пути – сто преград.
Gm A7
Нет дороги назад.
 
 
Em
С ветки падающий лист
Am D
В день осенний золотист
Am Hm
Он по воздуху кружится
Am
И танцует как артист
 
 
Вступление:
||--8-----8---5--------1---5-----7---------|
||----10--------5--5-----3---6------5-3-5--|
||------9--------5-------------------------|
||--7---------5--------0---------6---------|
||-----------------------------------------|
||-----------------------------------------|
|--8-----8---5--------1----5---7--|
 
Вступление:
Dm Dsus4 Dm6/H Gm/B A7
e||--------0h1-----|-3-----1-------|---------1-----|-3-----0-0-----0-|
H||-3----3-----3---|---3-------3---|-------3---3---|-----3-------2---|
G||----2---------2-|-----2-------2-|----2--------2-|---3-------0-----|
D||-0--------------|-0-------------|---------------|-----------------|
A||----------------|---------------|-2-------------|-1-------0-------|
E||----------------|--------------
 
A D
От чего молчишь, опустив глаза, льдинкой на щеке тает слеза
Dm A
Грусть печаль на твоих губах.
A D
Все твои слова догорят дотла, сохранить тепло ты не смогла
Dm A
Вот и все ты теперь одна.
 
 
Проигрыш
-----5---3---2-3-2-----5-----3-----2---------5---3---2-3-2-----5-----3-----
-----5---5-------------5-------5-----3-------5---5-------------5-------5---
---4---4---4---------5---5-------5-----4---4---4---4---------5---5-------5-
---------------------------------------------------------------------------
-------------------0-------3-------------------------------0-------3-------
-0---------------------------------------0--------------------------------
 
Am
Пьяная луна
E
бродит у окна,
Am C
снова не до сна
Dm Am
дрогнула струна.
 
 
Вступление:
F Am
E|----------------|----------------|----------------|----------------|
H|-------0--1-0---|-------0--1-0---|-------0--1-0---|-------0--1-0---|
G|----2---------2-|----2---------2-|----2---------2-|----2---------2-| \
D|-3--------------|-3--------------|-2--------------|-2--------------| / 2 раза
A|----------------|----------------|----------------|----------------|
E|----------------|----------------|-----------
 
Dm Dm`/A#
За окном темно
Dm Dm`/A#
За полночь давно
A7 Gm6 G?
Отблеск света тает на стекле
Dm Dm`/A#
А мысли как огни
 
 
Куплет 1:
Dm B
За окном темно
Dm B
За полночь давно
A B C
Отблеск света тает на стекле
Dm B
 
 
Проигрыш: Е
Е
Я сажусь в свой новый «Ягуар», мимо проплывает тротуар
D Е
При свете фар.
Е
Это сумасшедшая игра, на сиденье рядом кобура
D E