Аккорды к песням для гитары

Аккорды песни «Луна»

Транспонировать аккорды:   ниже   выше
[E--------------------------------------------------------
B--------------------------------------------------------
G-8----8----8-10-11--10--8----8----8----8-----8--10--11--
D---10---10----------------10---10---10---10-------------
A--------------------------------------------------------
E--------------------------------------------------------

E-------------------------------------------------------------
B-------------------------------------------------------------
G-8----8----8-10-11--10--8----8-------------------------------
D---10---10----------------10---10---8------------------------
A----------------------------------------10---8-------10--10--
E-------------------------------------------------11----------]

Bm
Рыдает ночь,
             G
И в черноте окна,
      Bm
Как апельсин,
          G
Всю ночь корячится луна.
       Bm                 G
Бросая свет на стену за спиной,
            Bm           G             A
Кричит, что ночь принадлежит лишь ей одной.
Я не держал
На эту ночь обид.
Я точно знал,
Кому она принадлежит.
Я прошептал
Сквозь сигаретный дым:
"Сегодня ночь принадлежит лишь нам двоим"

Мне все равно,
Что будет завтра днем,
Мне все равно,
Как ночь расправится с дождем.
Я знаю точно,
Ты меня простишь
За то, что больше мне ты не принадлежишь.
С тех пор не раз смотрел я на луну,
И вспоминал
Ночь в этой жизни я одну,
Которой свет
Уже давно пропал,
Как жаль, что многого тогда не понимал... 

Используемые аккорды