Аккорды к песням для гитары

Аккорды песни «На-На-На»

Транспонировать аккорды:   ниже   выше
Проигрыш (он же Припев):
    A5  C#5 F#5 E5
4------6-------9--
5--7---4---4---7--
6--5-------2------
 
На-На-На...     } 4 раза

 A5
4-----14--
5--7--12--
6--5------

Куплет:
    A5 C#5 F#5 E5 E  D
4-----6-------9-----7--
5--7--4---4---7--2--5--
6--5------2------0-----

A5              C#5     F#5  E
Я не верю в любовь и погнозы погоды
H5            D5         E5  C#5
Я не жду по ночам телефонных звонков
A5          C#5  F#5             E
Наслаждаясь стриптизом     ошибок природы
H5                D5       E5
Каждый день я к иньекции счастья готов

Соло:
    A   C#m F#m E
1--5---4---2---7--
2--5---5---2---9--
3--4---6---2---9--
4--7---6---4---9--
5--7---4---4---7--
6--5-------2------ 

Используемые аккорды

Видео Distemper «На-На-На»