Аккорды к песням для гитары

Аккорды песни «В комнатах тьмы»

Транспонировать аккорды:   ниже   выше
        F#               D#m                A#m                 B    
2)-----------------------------------------2----2-------------4---4-------
3)-----4---4-------------0---0-----------4---4----4---4-----5---5---5---5-
4)---4---4---4---4-----1---1---1---1---3------------3-----4-----------4---
5)-4-----------4-----1-----------1----------------------------------------

Вступление упрощённое:
        F#               D#m                A#m                 B
1)-----------------------8---8-------------2---2-------------4---4-------
2)-----3---3-----------8---8---8---8-----3---3---3---3-----4---4---4---4-
3)---4---4---4---4---6-----------6-----3-----------3-----4-----------4---
4)-4-----------4---------------------------------------------------------

Вступление: x2 

Куплет:
F#        D#m    A#m        B     
С детства мне говорили: "Всё будет хорошо"
F#  D#m         A#m       B   
Почему с каждым годом всё хуже ещё?
F#    D#m        A#m         B 
Я так жил всё в надеждах, и в 70 лет,
F# D#m     A#m       B   
Умирая на кресле, написал вам завет.

Припев:
F# D#m       A#m     B         
Ничего в этой жизни хорошего нет.
F#      D#m      A#m      B  
Все бессмысленно глупо, и сколько бы лет,
F#     D#m      A#m     B 
Ты не прожил, и разницы нет, когда ты,
F#  D#m      A#m        B        
Умираешь, заброшенный в комнатах тьмы.

Проигрыш=Вступление }x2 

Куплет:
F#        D#m    A#m        B     
Я обещаю то, что все мои слова,
F#        D#m    A#m        B     
Последний день и час твой подтвердят.
F#        D#m    A#m        B     
Ты улетаешь в рай, а может быть и в ад.
F#        D#m    A#m        B     
На самом деле, там лишь тьма и тишина.

Припев:
F#        D#m    A#m        B     
Ничего в этой жизни хорошего нет
F#        D#m    A#m        B     
Все бессмысленно глупо, и сколько бы лет
F#        D#m    A#m        B     
Ты не прожил, и разницы нет, когда ты
F#        D#m    A#m        B     
Умираешь, заброшенный в комнатах тьмы

Кода= Вступление }x8 

Используемые аккорды

Видео Face «В комнатах тьмы»