Аккорды к песням для гитары

«Flёur» аккорды

Куплеты:
Am C F
Я рисую жёлтых ящериц, розовых змей
F Am Am F
Безумные облака, в них поющих сирен
Am C F
За окном становится небо темней
F Am F
 
 
Intro:
Em Em Cm G#m
Em Em Cm Cm
G# Cm
Что я могу изменить своей любовью
G
Под этим тревожным небом, заполненным бомбами
G# Cm
 
 
Am
Что я могу изменить своей любовью
Em E
Под этим тревожным небом, заполненным бомбами
Am
Что я могу добавить к кровавым закатам
E F E7
К звёздам, застрявшим в небе осколками от снарядов
 
Intro:
Dm Gm Dm Gm
Bb A Bb A
Dm Gm
В кирпичных домах невысоких
Dm Gm
С налётом лёгкой разрухи
Bb A
 
 
Intro:
D F# Bm A
D Em G Bm
D A Bm
Стоит ли мне говорить о том
D A Bm
Что написано в вечерних газетах
Em6 Em G
 
 
(Куплет)
Hm F# Em G
Hm F# Em G
(Припев)
C Hm D E Em F# Hm
C Hm D E Em F# Hm
(Bridge)
C#7 Em F#
 
 
intro:
1|---------0-------|-------------|---------0-------|-------4-0---|
2|-----------3-----|-------0-----|-----------3-----|-----3-------|
3|-------4-----4---|---------1---|-------4-----4---|---2---------|
4|-----4---------4-|-----2-------|-----4---------4-|-0-----------|
5|-0-2-------------|---2---------|-0-2-------------|-------------|
6|-----------------|-0-----------|-----------------|-------------|
1|---------0-------|---------------|---------0-------|--
 
Intro:
Bbm Ab Gb Ab
Bbm Fm
Скажи: ничего не было, нет.
Bbm
Может быть, я поверю в это,
Fm
Если будет сказано с верой.
 
 
Куплет:
Am Fmaj7
Я знаю: есть конец у всех дорог
Am Fmaj7
Я знаю: есть конец у всех мелодий
Em C
Струится между пальцами песок
D Am
 
 
Вступление, оно же проигрыш между куплетами:
Am G C Dm Am G C -- 2 раза.
Am C Dm
Когда ты грустишь - мне хочется петь,
G Am
И так вот всегда.
Am C Dm
Упреком ли словом захочешь задеть -
 
 
e-||-------------|--------------|--------------|------p0-------|
B-||-------------|--0h1p0-------|--------------|--1-h3p1-------|
G-||-------2-----|--------2-----|--------2-----|---------2-----|
D-||----2-----2--|-----------2--|-----2-----2--|------------2--|
A-||-0-----------|--------------|--0-----------|---------------|
E-||-------------|--------------|--------------|---------------|
e-|--------------|--------------|--------------|--0-------------||
B-|-----
 
Riff: (Piano)
e||------7--8-------10--8-------------------|
B||--10-------------------10--9-------------|
G||-----------------------------------------|
D||-----------------------------------------|
A||-----------------------------------------|
E||-----------------------------------------|
e||---8-10-12-------13-12-10-12-12----------|
 
Intro:
G# Fm G# Fm
Cm Fm Cm Fm
G#
Тоска, одиночество, боль, дыхание
G
Ночи...
G# G
 
 
Hm Hm* C/B Em Em/Gb Em F#m* F#m**
Hm Hm* C/B Em Em/Gb Em X X2
Hm_______________C/B
Время остановилось между сказкой и былью,
Em________Em/Gb__Em_____F#m*____________F#m**
Я стою на холодных плитах, покрытых звездною пылью.
Hm______________________C/B
Мост над туманным заливом, чувство до боли знакомо,
 
 
Bm F#
Мы летали, мы были как дети...
G E
Ждали мы, затаив дыхание,
что откроется дверь запретная, -
дверь в утраченные воспоминания
Bm F#
И за нашим окном заснеженным,
 
Em B
В небе полная луна
C
проплывает.
Em
Ты живешь там,
B C
ничего обо мне не зная.
 
 
(Intro)
Em Em Em/G Em/F# (3 раза)
Em Em E E
Am Am X Am (2 раза)
Am Am X X
Am Am X Am
Am
Расскажи мне о смерти,
 
 
Dm C
Я видела это во сне
B
Как цветы умирают в огне
Gm
Пепла легкого лепестки
Dm
Распадаются на куски
 
 
B B
----------------------------------
----------------------------------
-8--------------8-----------------
-9-----9--10-9--9--9--7--9--10-9--
-9--------------9-----------------
-7--------------7-----------------
B B B B B B C C
 
Вступление:
1 часть:
Gm (G5) | Gm7 | Еb/G | G | Cm/Eb | Eb | F | F |
G5 | Gsus2 | Gm | Gsus4 повтор
2 часть:
Gm | B/F | Eb+7 | Eb+7 | повтор неск раз
Gm F
Свежий воздух пахнет зимой,
 
 
Am F
Это будет почти реально
Dm F
Это будет совсем как наяву
Am F
Ты почувствуешь, как исчезает страх,
Dm E
Подчиняясь внезапному волшебству...
 
 
Intro:
Em Bm
G Bm F#m
По инерции в облаке света
G Em Bm
Неживые шагают тела
Выдыхаю воздух согретый
Но я слабый источник тепла
 
 
Intro:
(играется вместе с аккордами припева)
E|------------------------------------------------|
B|------------------------------------------------|
G|--7--9--9--11----11--------6--7--6--7----7------|
E|-------------------------10---------------------------------------------|
B|------------------------------------------------------------------------|
G|--9--11--11--12----12----------12--11----------11-9-7--9--11----11------|
 
Am Dm
Нет никаких деревьев
Am Em7
Никакого дома
Am Dm
В сумрачных тихий аллеях
Am E
Никаких знакомых собак
 
 
Intro:
Em Adim
Em Adim
C Am
G H7
Em Adim Em Adim
Сквозь тревожные сумерки, дым сигарет
C Am G H7
 
 
Fm C
Давай разрушим потолок
C# Ab
И будем видеть бездну звёзд,
Bbm C# C
Читать падений их следы.
Я притворюсь, сглотнув комок,
Что я твоих не вижу слёз
 
 
Виолончель :
3|-8/10-9---------------------|
4|---------5/7-7--------------|
5|----------------7/8-10--7-5-| (В оригинале на октаву ниже)
| | | | | | | |
Dm A A Dm Dm A7 A7Dm
--------------------------------------------------------------------------------
F E
 
Вступление:
e-||---0---0-------0-|----0----0-----1-|-0----------|---0---0-------0-|
B-||---1---1-------1-|----1----1-----3-|---3--------|---1---1-------1-|
G-||---2---2---2---2-|----2----2-----2-|------2-----|---2---2---2---2-|
D-||-----------------|--3----3----0----|------------|-----------------|
A-||-0---0---0---0---|-----------------|------------|-0---0---0---0---|
E-||-----------------|-----------------|------------|-----------------|
e-||----0----0-----1-
 
Dm B Dm B
Как осторожно вошла в моё сердце твоя золотая стрела
Dm B Dm B
Звенят бубенчики, колокольчики, колокола
Gm A(A7)
Небо искрится, полыхают костры
Gm A(A7)
В сердце томится ослепительный взрыв
 
 
Intro:
A Dm A Dm F Am F Am
Am
Тишина.
G F
Беспощадная ночь холодна,
Am
Поднимается к сердцу волна.
 
 
Em D C Am
Когда громыхать перестанут тамтамы, то ближний, то дальний
Em D C Am
И молот замрёт в двух сантиметрах над наковальней
Em D C Am
И вдруг станет тихо, так тихо, как в храме, тебя я узнаю
Am Em C C
А ты шевелишь беззвучно губами - я всё понимаю
 
Intro:
Em Em Em Em Am Am Am B
Em
Они разбудили
спящий вулкан,
чтоб поиграть
A
с раскаленною лавой
 
 
Intro+Bridges:
D D/C Gm Gm
D D/C Gm Gm
Cm Cm7 D D
D D/C Eb Eb7
Gm D
Зима сменилась весной,
Gm
 
 
Intro:
Dm Bb Gm A
Dm C
Каждой ночью без сна,
Am
Поднимаясь со дна,
Bb
Кувшинки грустят.
 
 
Em D Am
В сумерках растаял звук шагов,
C
Птицы молчат.
Em D Am
Незаметно с синих берегов
C G
Схлынул закат.
 
 
Dm Dm/5-
Она не придет - её разорвали собаки
Dm
Арматурой забили скинхеды
G
Надломился предательский лёд
Dm Dm/5-
Её руки подготовлены не были к драке
 
 
Cm Gm
Я незаметно на дереве в листьях,
B
Наполняю жизнь свою смыслом,
Fm
Пряду свою тонкую нить.
Нас очень много на дереве рядом,
И каждый рожден шелкопрядом,
 
 
Dm
Ты, может быть, спросишь меня, что случилось?
Да так, ничего, просто
Cm
Похолодало.
А мне, как назло, лето тёплое снилось.
Проснулась, а Солнца
Как не бывало.