Аккорды к песням для гитары

Аккорды песни «Север»

Транспонировать аккорды:   ниже   выше
Вступление (примерный вариант боя) - 2 раза:

     A                      Bm                        
E|---0---0---0---0---0---0---2---2---2---2---2---2-|
H|---2---2---2---2---2---2---3---3---3---3---3---3-|
G|---2---2---2---2---2---2---4---4---4---4---4---4-|
D|-------------------------------------------------|
A|-0-----------0-----------2-----------2-----------|
E|---------0-----------0-----------2-----------2---|
     E                       A                        
E|---0---0---0---0---0---0---0---0---0---0---0---0-|
H|---0---0---0---0---0---0---2---2---2---2---2---2-|
G|---1---1---1---1---1---1---2---2---2---2---2---2-|
D|-------------------------------------------------|
A|---------2-----------2---0-----------0-----------|
E|-0-----------0-------------------0-----------0---|

A                              
Когда в душе завянет клевер,
Bm                             
Устанут птицы песни петь,
E                               
Я еду к корешу на Север,
A            
Чтоб сердце отогреть

Зовут его Потапов Саня,
Он под Архангельском живёт,
Король таёжных глухоманей
И император всех болот

Проигрыш=Вступление

Приеду, и неторопливо
Махнёт стакан не глядя он,
Чтоб душу Русью опалило
Среди родных сосновых крон

---------------------------------------------------

Возьмёт тоску поморской крагой,
Расплющит будто бы доской,
D                               
Утащит в море за навагой
E                       
Иль за нахальною треской

А там моржи, а там тюлени
Лежат на лучшем из пляжей
С инстинктом салосохранения
Порядок полный у моржей!

Проигрыш:

     A                      Bm                        
E|---0---0---0---0---0---0---2---2---2---2---2---2-|
H|---2---2---2---2---2---2---3---3---3---3---3---3-|
G|---2---2---2---2---2---2---4---4---4---4---4---4-|
D|-------------------------------------------------|
A|-0-----------0-----------2-----------2-----------|
E|---------0-----------0-----------2-----------2---|
     E                       A                        
E|---0---0---0---0---0---0---0---0---0---0---0---0-|
H|---0---0---0---0---0---0---2---2---2---2---2---2-|
G|---1---1---1---1---1---1---2---2---2---2---2---2-|
D|-------------------------------------------------|
A|---------2-----------2---0-----------0-----------|
E|-0-----------0-------------------0-----------0---|

И вновь в душе воскреснет клевер,
А в сердце защебечет грач
Как хорошо сбежать на Север
В эпоху южных неудач!

Где ходит солнышко в зените,
А сёмга ползает на дне,
И короля играет свитер,
И истина – в Двине

Окончание:

     A                      Bm                        
E|---0---0---0---0---0---0---2---2---2---2---2---2-|
H|---2---2---2---2---2---2---3---3---3---3---3---3-|
G|---2---2---2---2---2---2---4---4---4---4---4---4-|
D|-------------------------------------------------|
A|-0-----------0-----------2-----------2-----------|
E|---------0-----------0-----------2-----------2---|
     E                       A                        
E|---0---0---0---0---0---0---0---0---0---0---0---0-|
H|---0---0---0---0---0---0---2---2---2---2---2---2-|
G|---1---1---1---1---1---1---2---2---2---2---2---2-|
D|-------------------------------------------------|
A|---------2-----------2---0-----------0-----------|
E|-0-----------0-------------------0-----------0---| 

Используемые аккорды

Видео Игорь Растеряев «Север»