Аккорды к песням для гитары

Аккорды песни «Beavis and Butthead theme»

Транспонировать аккорды:   ниже   выше
[e----------------------------------------------------
B---10-----8--------8-(p)7---10-10--(p)7-----8-8-7---
G------9-------7-7--9-(p)7----9--9--(p)7-----9-7-7---
D-7------7---7-------------7--------------7----------
A----------------------------------------------------
E----------------------------------------------------]
 
Then it goes into the A5 riff:

[e-----------------------------
B-----------------------------
G---2--2------------2--2------
D---2--2------------2--2------
A-0-------0--3^--0------------
E------------------------0-3^-] } Repeat

And this is in there also:

[e---------------
B-5--7^8-7--5---
G-5--7^8-7--5---
D-5-----------7-
A---------------
E---------------] 

Используемые аккорды