Аккорды к песням для гитары

Аккорды песни «Терминатор-2»

Транспонировать аккорды:   ниже   выше
^^^ - нота звучит 2 секунды
^^^^ - нота звучит 4-5 секунд (compression рулит:))

1----0--1^^^-------0--------------------------------------------
2--3--------------------1---------------------------------------
3---------------------------------------------------------------
4---------------------------3-----------------------------------
5---------------------------------------------------------------
6---------------------------------------------------------------

1----0--1^^^-------0----------5^^^------3^^^--------------------
2--3--------------------1---------------------------------------
3---------------------------------------------------------------
4---------------------------------------------------------------
5---------------------------------------------------------------
6---------------------------------------------------------------

1----0--1^^^-------0--------------------------------------------
2--3--------------------1---------------------------------------
3---------------------------------------------------------------
4---------------------------5^^^^-----3^^^^------3^^^----2^^^---
5--------------------------------------------5------------------
6---------------------------------------------------------------
p-pull off
1--------------------------1^^^0--------------------------------
2--3^^^^---1^^^^------------------------------------------------
3------------------3^^^^----------------------------------------
4---------------------------------------------------------------
5---------------------------------------------------------------
6--------------------------------------------------------------- 

Используемые аккорды