Аккорды к песням для гитары

«Кино» аккорды

Вступление:
e|-1-0----------------------|
H|------3-1-0---------------|
G|------------2-0-----------|
D|-----------------3-2-0-0--|
A|------------------------3-|
C Am
Здравствуйте, девочки!
E7
Мой чемоданчик,набитый планом
Он предназначен для наркоманов
A
Он предназначен для плана курок
E7
Он предназначен и для обкурок
H A E7
 
 
Вступление:
Em Em
|---0--0----0--0---8----8--7--5--3----5--7--2--2--2--2-----|
|------0-------0----0-------------0----------0--0--0--0----|
|------0-------0-----0-------------0----------0--0--0----0-|
|------2-------2---7----7--5--4--2----4--5--0--------------|
|-2----2--2----2-------------------------------------------|
|------0-------0-------------------------------------------|
F#m H7 E
Да, я шут, я циркач, так что же?
F#m H7 E
Пусть меня так зовут вельможи.
F#m H7 E C#m
Как они от меня далеки, далеки!
F#m H7 E
Никогда не дадут руки.
 
Fm C#m Hm A G#m Fm
Вечер наступает медленнее, чем всегда,
Утром ночь затухает, как звезда.
Я начинаю день и кончаю ночь,
24 круга прочь, 24 круга прочь,
Я - асфальт.
Я получил письмо от себя себе,
Я получил чистый лист, он зовет к тебе.
 
 
Вступление: Em Am Hm - 4 раза Em
Am Hm Em
Ох, смотри, не промахнись атаман,
Am Hm Em
Чтоб не дрогнула рука невзначай
Am Hm Em
Да смотри, не заряди холостых,
Am Hm Em
 
 
C G
Я должен прийти к девяти
C
На работу свою.
C G
Но сейчас уже без десяти,
C
А я только встаю.
 
 
Intro
Repeat 3 times
e|-2-2-2--2--2-2--2-2--2-2-2--2-2--0----0--0--0-0----------------------------
H|-3-3-3--3--5-3--5-3--5-3-3--5-3--2----2--3--3-2----------------------------
G|-2-2-2--2--2-2--2-2--2-2-2--2-2--2----2--2--2-2----------------------------
D|-4-4-4--4--4-4--4-4--4-4-4--4-4--2----2--2--2-2----------------------------
A|-2-2-2--2--2-2--2-2--2-2-2--2-2--0----0--0--0-0----------------------------
E|--
 
Интро...
E|----------------------3-1-0------------------------------------
H|--1-0-1-0-1-0-3-1-0----------0---------------------------------
G|--2-0-2-0-2---------0------------------------------------------
D|---------------------------------------------------------------
A|-0-------------------------------------------------------------
E|---------------------------------------------------------------
Am Em Am G
 
Проигрыш
Bm7--->B7sus4
A --->Asus4 (в начале песни связка в эти 4 аккорда играется 4 раза)
потом сразу мини соляк
e|-7-9-7--|--------|--------|
H|--------|-9-7-9-7|9-------|
в проигыше во всех аккордах лучше играть по нижним струнам, ставятся аккорды Bm7, А
и в такт ставиться мизинец.
 
Am Em Am G
Нет меня дома целыми днями:
C G F G
Занят бездельем, играю словами
Am Em Am G
Каждое утро снова жизнь свою начинаю
C G F G
И ни черта ни в чем не понимаю.
 
 
Am Em Am G
Нет меня дома целыми днями:
C G F G
Занят бездельем, играю словами
Am Em Am G
Каждое утро снова жизнь свою начинаю
C G F G
И ни черта ни в чем не понимаю.
 
 
Intro
Repeat 3 times
E|-2-2-2--2--2-2--2-2--2-2-2--2-2--0----0--0--0-0-|
B|-3-3-3--3--5-3--5-3--5-3-3--5-3--2----2--3--3-2-|
G|-2-2-2--2--2-2--2-2--2-2-2--2-2--2----2--2--2-2-|
D|-4-4-4--4--4-4--4-4--4-4-4--4-4--2----2--2--2-2-|
A|-2-2-2--2--2-2--2-2--2-2-2--2-2--0----0--0--0-0-|
E|------------------------------------------------|
 
Соло:
3|-----44----------------------|
4|---55--5-----------44------4-|
5|-77-----7-7757---55--5----5--|
6|---------------77-----7-77---|
Em Hm Em
В этом мотиве есть какая-то фальшь,
G D Em
A F#m
E-------------|
B----------2--|
G|--2------2--2--4--2-----|
D-------------|
A-------------|
E-------------|
A F#m
Вступление: /C E/H Am G C Am C Am/
C B Am
Я встретил ее, я встретил ее, она шла в кино,
F G C G
И я пошел следом, я рядом купил билет.
C B Am
И я подумал о том, что она может быть для меня сестрой,
F G C G
 
Вступление (гитара)
e|--0--0----------------------------2--2---------------------------------------|
H|--0--0-------------1--0-----------1--1-----------7--5-----------------------|
G|--2--0-------------3--2-----------2--2-----------5--3-----------------------|
D|-------------------2--1-----------1--1-----------7--5------0----------------|
A|-------------------3--2--------------------------5--3---------3---3-2-------|
E|-----------------------------------------------
INTRO
Bass:
G|-----------------------------------------------------------------|
D|-----------------------------------------------0-----------------|
A|-----------------3-----2---------0-----0---2-3-------3-----------|
E|---0-----0---2-3-------------------------------------------------|
G|-----------------------------------------------------------------|
D|-----------------------------------------------0-----------------|
 
Am F
Я сижу в кровати, только что из ванной,
Am F
с мокрой головой.
Am F
На улице мороз, и рано, как ни странно,
Am F
я пришел домой.
 
Em C Em D
Оглянись. Эта драка без права на отдых.
Hm C Em D
Лишний день. Днем больше - днем меньше.
Ночь - окурок с оплавленным фильтром,
Брошенный тем, кто хочет умереть молодым.
Em C Em D
Верь мне! И я сделаю все, что ты хочешь.
 
Em C Em D
Оглянись. Эта драка без права на отдых.
Hm C Em D
Лишний день. Днем больше - днем меньше.
Ночь - окурок с оплавленным фильтром,
Брошенный тем, кто хочет умереть молодым.
Em C Em D
Верь мне! И я сделаю все, что ты хочешь.
 
 
GEmAm D G Em Am D
Весна. Постоянный насморк.
GEmAm D G Em Am D
Весна. Солнце светит опять.
GEmAm D G Em Am D
И я промочил ноги.
Hm Am G
Весна. Я опять иду гулять.
 
 
Вступление: C | G | Am | F > 2 раза
C
Мы вышли из дома,
G
Когда во всех окнах
Am
Погасли огни,
F
 
Оригинал на пол тона ниже, -1 поле тональности
Вступление: Em Am Bm - 4 раза Em
Am Bm Em
Ох, смотри, не промахнись атаман,
Am Bm Em
Чтоб не дрогнула рука невзначай
Am Bm Em
Да смотри, не заряди холостых,
 
 
Am Dm Am
Покажи мне людей, уверенных в завтрашнем дне,
F E Am
Нарисуй мне портреты погибших на этом пути.
Am Dm Am
Покажи мне того, кто выжил один из полка,
F
Но кто-то должен стать дверью,
 
C Am
Как много веселых ребят,
F G
И все делают велосипед,
F G
А один из них как-нибудь утром
C
Придумает порох.
 
Вступление: Am | Em > 4 раза
Am Em
Пустынной улицей вдвоем
C G
С тобой куда-то мы идем,
F G C Am
Я курю, а ты конфеты ешь.
Am Em
 
Em
Дождь идет с утра, будет, был и есть.
Am C Em
И карман мой пуст, на часах шесть.
Папирос нет и огня нет,
И в окне знакомом не горит свет.
C
Время есть, а денег нет
 
Em C
Где Вы теперь и с кем, кто хочет быть судьей,
D Em
Кто помнит все имена?
Нам не хватает тем, не нарушай покой,
Эта ночь слишком темна.
F G
Где твой мундир, генерал,
 
Em Hm C D Em Hm C D
Я смотрю в календарь, я знаю, что скоро зима,
Em Hm C D Em Hm C D
Наша улица на глазах меняет цвета,
Em Hm C D Em Hm C D
За решеткой желтой листвы я вижу птиц,
Em Hm C D Em Hm C D
Моя двадцатая осень сводит меня с ума.
 
 
Вступление: G(III) A(V) D(V) D7(V)
G(III) A(V)
Ах, как прекрасен сегодняшний день
D(V) D7(V)
И спорить об этом мне будет не лень.
И я бы проспорил хоть час и ничуть не устал.
С утра было пиво и снег за окном
Мне было легко покидать чужой дом
 
 
E H
Вечер. Я сижу дома.
A E C
Это зима, это декабрь.
E H
Ночь будет холодной,
A E
Если верить часам, она уже рядом...
 
Вступление: F#m | C#m > 4 раза
F#m
Тёплое место, но улицы ждут
C#m
Отпечатков наших ног.
F#m E
Звездная пыль - на сапогах.
F#m
 
intro
F#m F#m F#m F#m F#m C#m C#m
e| --2---2----2---2-----2-----------------4----4-------4--4-------
a|---4---4----4---4-----4-----------------4----4-------4--4--------
d|---4---4----4---4-----4---4-4-4---------6----6-------6--6--------
g|---2---2----2---2-----2---2-2-2--2------6----6-------4--6--------
h|---2---2----2---2-----2---5-4-2---------5----5-------7--7--------
e|---2---2----2---2-----2---2-2-2---------4----4-------4--4--
 
Fm# H7 E
Да, я шут, я циркач, так что же?
Fm# H7 E
Пусть меня так зовут вельможи.
Fm# H7 E Cm#
Как они от меня далеки, далеки
Fm# H7 E
Никогда не дадут руки.
 
 
G Hm
Далеко далеко за морем
G Hm
Лежит золотая страна!
C Am
Детей там не мучают в школе.
C D
Там все старики богачи.
 
 
Am G Am G
Мы хотим видеть дальше, чем окна дома напротив,
Am F Em
Мы хотим жить, мы живучи, как кошки.
Am G Am G
И вот мы пришли заявить о своих правах: "Да!"
Am F Em
Слышишь шелест плащей - это мы...
 
Dm Am Dm Am
Я знаю - мое дерево не проживет и недели
Я знаю - мое дерево в этом городе обречено,
Dm Am
Но я все свое время провожу рядом с ним.
Мне все другие дела надоели.
Мне кажется, что это мой дом.
Мне кажется, что это мой друг.
 
 
A C#m F#m H A
Я знаю, что если ночь, должно быть темно...
A C#m F#m H A
А если утро, должен быть свет.
A C#m F#m H A
Так было всегда и будет много лет,
C#m F#m E
И это закон...
 
Вступление. Играть 2 раза :
Am C
-|---0----|-0------|--------|--------|-0------|--------|--------|---0----|
-|-1-----0|-1------|--------|--------|-1------|--------|--------|-1-----0|
-|-----1--|-2------|--------|--------|-0------|--------|--------|-----1--|
-|--------|-2------|--------|--------|-2------|--------|--------|--------|
-|--------|-0------|--------|-0---0-2|-3------|--------|--------|--------|
-|--------|--------|-
Am G
Темные улицы тянут меня к себе,
Hm Em
Я люблю этот город, как женщину "Х".
Am G
На улицах люди, и каждый идет один,
Hm Em
Я закрываю дверь, я иду вниз.
 
 
Am Dm
Над полями туман,
Em Am
Над рекой туман.
Am Dm
Ты придешь, не придешь -
G C
Все равно обман.
 
 
Вступление:
Hm A F#m G
e|-2-|-0-----------|-2-|-3---------|
b|-3-|-2-3-2-0-2-0-|-2-|-3-3-5-3-2-|
g|-4-|-2-----------|-2-|-4---------|
d|-4-|-2-----------|-4-|-5---------|
a|-2-|-0-----------|-4-|-5---------|
e|-2-|-0-----------|-2-|-3---------|
 
Hm A
Они говорят: им нельзя рисковать,
Fm# G
Потому что у них есть дом, в доме горит свет.
Hm A
И я не знаю точно, кто из нас прав,
Fm# G
Меня ждет на улице дождь, их ждет дома обед.
 
Музыка и слова - Виктор Цой.
Вступление:
Dm C Dm C
e|------------------------------------------------------------------------------------------------|
H|------------------------------------------------------------------------------------------------|
G|------------------------------------------------------------------------------------------------|
D|----7--------------7------------------
 
Dm C F
Волчий вой да лай собак,
Gm C Dm
Крепко до боли сжатый кулак,
Dm C F
Птицей стучится в жилах кровь,
Gm C Dm
Вера да надежда, любовь.
 
Вступление и проигрыш аккорда Dm:
e||--5--5--5--8--5--5--5--8--|
H||--6--5--6--6--6--5--6--6--|
G||--7--7--7--7--7--7--7--7--|
Am
Белый снег, серый лед,
C
На растрескавшейся земле.
A Hm
Не люблю темные стекла,
A Hm
Сквозь них темное небо.
G D Em
Дайте мне войти, откройте двери.
A Hm
Мне снится Черное море,
 
C Hm
Подставляй стаканы, наливай полнее,
Cm D
А что дальше будет - ты увидишь сам.
C Hm
Но вопросов больше мне не задавай,
Hm
Знай, что люди как
 
 
Am G Am
Уже поздно, все спят, и мне пора спать,
G C
Завтра в восемь утра начнется игра.
G C G
Завтра солнце встанет в восемь утра,
Am G
Крепкий утренний чай,
Em A# Em
Третий день с неба течет вода,
Hm Em
Очень много течет воды.
A# Em
Говорят, так должно быть здесь,
Hm G
Говорят, это так всегда.
 
Вступление(Подобрал А.Мармелюк):
1-----0------------------0----------------------
2---8---8--------------8---8--------------------
3-------------------------------------9---------
4----------------------------------------9------
5|-------10------------------10-----------------7-----------
6|-10-10----10---------10-10----10----------7-7---------7-7-
------------------
Музыка и слова - Виктор Цой.
Вступление:
G | D G | D G | D | G | D
C D G Em
e|----------------------------------------------------------------|
H|----------------------------------------------------------------|
G|-------------0--------------------------------------------------|
D|-----------------4---2---0--------------------------------------|
F# A F# A
Эй, где твои туфли на манной каше,
H F# A
И куда ты засунул свой двубортный пиджак?
Спрячь подальше домашние тапки, папаша,
C# H
Ты ведь раньше не дал бы за них и пятак.
F# A F# A
 
 
Em
Я выключаю телевизор, я пишу тебе письмо
Em
Про то, что больше не могу смотреть на дерьмо,
Am
Про то, что больше нет сил,
Em
Про то, что я почти запил, но не забыл тебя. /Em D Hm C Am D/
 
Перед вступлением:
D|--------------------3--2-----2-3-2--------|
A|--0-----0-----3-----------5------------3--|
E|-----0-----3-----3------------------3-----|
Вступление+Соло в куплете:
e|--------------------------------|-----------------0--------------|
H|-----------------1-----0--------|-----1-----1-----------3-----1--|
G|----2-----2------------------2--|--0-----0-----0-----0-----0-----|
Соло:
e||---------0----0-----0--3------------------------0----0-----0--3---|
b||-------1---1------3-------3--1-0-1-0----------1---1------3--------|
g||---2-----------------------------------2-0-2----------------------|
d--------------------------------------------|
a--------------------------------------------|
e--------------------------------------------|
e----3---------------------------------------------------|
F G Am E
Я никто и хочу им остаться
Может быть в этом и есть мой удел
Никогда никем не называться
Не устраивать скандалов и сцен
Припев:
F G
Ля-ля-ля-ля ля-ля-ля-ля
 
 
e------0-2-----5-2---------0---------0-2--------5-2---2-2------2-3-3-------3----
b-2-3-3-3-3-------3-----2--2---2-3-3-3-3--3-2----3-2--2----2--3---3----3--2-2-0-
g--------2---2-------2-4-2---2---------2---2----------2---2--2---4-----4-4---2--
d-------------------------2-----2-----------------------4-----4-----5------5----
a--------------------------------------------------------4-----------5----------
e--------------------------------------------------------2-----------3
Вступление:
C D G Em C
E|0---3-0|2---0-2|3---2-3|0-----0|0--
B|1------|3------|0------|0---3--|1--
G|0------|2------|0------|0------|0--
G H7 Em
В городе плюс двадцать пять - Лето,
C G
C A Dm
Ты уходишь так рано и приходишь так поздно домой.
G# C Em Dm G
Я скучаю целый день, я смотрю во двор в окно.
G A Dm
Я хотел бы все время быть только с тобой.
G# C Em Dm C
Но пока я без тебя. И в душе моей темно.
 
 
Intro : Am-Em-F-G – 2 once
Am Em F G
Теплое-теплое море. Жаркое солнце.
Синие-синие волны и пустынный пляж.
Музыка рядом с тобою, ты-рядом со мною
И весь этот берег наш.
Припев:
F G
 
Вступление: C (G) | F > 4 раза
C
Солдат шел по улице домой
F G C
И увидел этих ребят.
C
Кто ваша мама, ребята? -
F G C
 
-=Проигрыш=-
(Подбор А.Семенов)
Вариант 1
Hm A G
5|-12-9-9-9-9-9--12-7-7-7-7-7--12-5-5-5-5-5--
6|-10-7-7-7-7-7--10-5-5-5-5-5--10-3-3-3-3-3--
Вариант 2
Hm A G
F#m
У меня есть дом, только нет ключей,
E
У меня есть солнце, но оно среди туч,
Hm
Есть голова, только нет плечей,
E
Но я вижу, как тучи режут солнечный луч.
 
G#
Мне все равно работать где и кем,
C#
Мне все равно когда и что я ем,
G#
Мне все равно проснусь я или нет
D# C#
А мне еще только двадцать лет
 
 
Вступление: Fm | Db | Fm | Cm | Ab | Fm
Fm Db Fm
Мне не нравится город Москва,
Cm Ab Fm
Мне нравится Ленинград.
Мы рано созревшие фрукты,
А значит нас раньше съедят.
Bm Fm
 
 
Вступление: G | D | Em | Hm
G D Em Hm
Я на запотевшем стекле трамвая
Пальцем рисую плохие слова.
Кругом водосточные трубы играют.
C D
И мокра от дождя, как на клумбе трава,
G D Em Hm
 
 
/Em Hm Am Em/
Em G Cm Hm Am Cm Em
Пришел домой, и как всегда опять один.
G Cm Hm Am Cm D
Мой дом пустой, но зазвонит вдруг телефон,
Am Cm D Hm Cm
И будут в дверь стучать и с улицы кричать,
Hm Cm D Em /Em Hm Am Em/
 
C F G
Свежей, пышной травою
C F G
Поля наполняются в срок.
C F G
Лето в самом начале
C F G
И осень наступит не скоро.
 
 
C Am F
Я вижу, как волны смывают следы на песке,
C Am F
Я слышу, как ветер поет свою странную песню,
C Am F G
Я слышу, как струны деревьев играют ее,
C G Am F
Музыку волн, музыку ветра. (2 раза) /C Am F/
 
e|---------------------------------------------------------------------------
H|---------------------------------------------------------------------------
G|---------------------------------------------------------------------------
D|-0-2-4-5-4--0--4-2-----0-2-4--2--0----0-2-4-5-4--0--4-2--2-0---0-----------
A|---------------------4-------------2-------------------------4-------------
E|---------------------------------------------------------------------------
Em D G
Наше сердце работает, как новый мотор,
Em D G
Мы в четырнадцать лет знаем все, что нам надо знать,
Em Am G
И мы будем делать все, что мы захотим,
Em D G
Пока вы не угробили весь этот Мир.
 
Вступление: Em Am G > 2 раза
Em Am G
Наше сердце, работает как новый мотор,
Em Am G
Мы в четырнадцать лет знаем все, что нам надо знать.
Em Am G
И мы, будем делать все, что мы захотим,
Em Am G
 
 
A A-1
Ночь, день -
D Hm
Спать лень.
F#m E
Есть дым -
C#m
Черт с ним.
 
 
Am Dm
Над полями туман,
Em Am
Над рекой туман.
Am Dm
Ты придешь, не придешь -
G C
Все равно обман.
 
 
бас:
Em D Em D C D Em D
-|-------|-------|-------|-------|-------|-------|-------|-------|
-|-------|-------|-------|-------|-------|-------|-------|-------|
-|-------|-------|-------|-------|-------|-------|-------|-------|
-|2------|0------|----2--|0------|------2|0------|----2--|0------|
-|------2|-------|--2---2|-------|3------|-------|--2---2|-------|
-|-------|-------|-------|-------|-------|-------|-------|-------
F#m H
Наши реки бедны водой,
F#m E
В наших окнах не видно дня,
F#m H
Наше утро похоже на ночь,
A E
Ну, а ночь - для меня...
 
Cm G# Am
Он ночью выходит из дома,
Cm G# Hm
Забирается в чужие квартиры,
Dm Hm Dm Hm
Ищет, где стоит холодильник,
Cm G# Hm
И ест. Он ест. Ест.
 
 
C Hm G
За окнами солнце, за окнами свет - это день.
C Hm G
Ну, а я всегда любил ночь.
A# C Em
И это мое дело - любить ночь,
A# C G
И это мое право - уйти в тень.
 
 
/Em Hm Am Hm Em Hm Am Hm/
Em Hm Am Hm Em Hm Am Hm
Я из тех, кто каждый день уходит прочь из дома около семи утра.
Em Hm Am Hm Em Hm G Am
Я из тех, кто каждый день уходит прочь из дома около семи утра.
Hm Am
И что бы ни было внизу - холод или жара.
D C
 
 
Em
Они сказали: надо пройти!
G D Em
Они не верят, что есть другие пути.
Am Em
Не бойся это только кино,
D Em
Я знаю, точно это кино
 
Em
Они сказали: надо пройти!
G D Em
Они не верят, что есть другие пути.
Am Em
Не бойся это только кино,
D Em
Я знаю, точно это кино
 
 
/D A D A E/
A E
Последнее время я редко был дома,
D A
Так что даже отвыкли звонить мне друзья.
E
В разъездах, разгулах конца лета симптомы
D A E A /A D/
 
 
Вступление: Am | C | D | Em > 4 раза
Em Am C D Em
Я сижу и смотрю в чужое небо из чужого окна
И не вижу ни одной знакомой звезды.
Я ходил по всем дорогам и туда, и сюда,
Обернулся - и не смог разглядеть следы.
Em Am C D Em
Но если есть в кармане пачка сигарет,
 
Em
Вместо тепла - зелень стекла,
G
Вместо огня - дым,
D Em
Из сетки календаря выхвачен день.
Em
Красное солнце сгорает дотла,
 
Am
Песня без слов, ночь без сна,
G
Все в свое время - зима и весна,
Dm
Каждой звезде - свой неба кусок,
E F
Каждому морю - дождя глоток.
 
/D A D A E/
A E
Последнее время я редко был дома,
D A
Так что даже отвыкли звонить мне друзья.
E
В разъездах, разгулах конца лета симптомы
D A E A /A D/
 
 
E
Надело ходить на работу,
Каждый день к девяти на работу.
H
Я нашел выход:
E
Я хочу быть кочегаром (3 раза)
A
 
 
Hm A
На холодной земле стоит город большой.
G F#m
Там горят фонари, и машины гудят.
Hm A
А над городом ночь, а над ночью луна,
G F#m
И сегодня луна каплей крови красна.
 
Em
Ты смотришь назад,
C
Но что ты можешь вернуть назад.
Em C
Друзья один за одним превратились в машины.
Em
И ты уже знаешь,
 
 
Em
Ты смотришь назад,
C
Но что ты можешь вернуть назад.
Em C
Друзья один за одним превратились в машины.
Em
И ты уже знаешь,
 
 
Проигрыш:
D---------------------8-8-8-8-----------------D
A-------- -5----------8-8-8-8----------3------A
E—3—3---6----6---3----6-6-6-6-—1--1--4----5---E
Gm Cm
На улице снег утратил свою белизну,
AM B
В стеклянности талой воды мы видим луну
Em
Чтение книг - полезная вещь,
F Em
Но опасная, как динамит,
Я не помню, сколько мне было лет,
G D
Когда я принял это на вид,
C D
 
-=Вступление=-
1|--0--0--0--------3-------2-------0---|-2-3-2-3-2-3-2-3-2-
2|--0--0--0-------0-------0-------0----|-3-3-3-3-3-3-3-3-3-
3|--0--0--0------0-------0-------0-----|-2-2-2-2-2-2-2-2-2-
4|--2--2--2-----2-------2-------2------|-0-0-0-0-0-0-0-0-0-
5|--2--2--2----2-------2-------2-------|-0-0-0-0-0-0-0-0-0-
6|--0--0--0---0-------0-------0--------|-0-0-0-0-0-0-0-0-0-
-=Конец бас=-
C G
Гроза за окном, гроза
Dm F
С той стороны окна,
C G C G
Горят фонари и причудливы тени,
C
Я смотрю в ночь,
 
 
/Em G F#m H7/
Em G F#m H7
Каждый день ты приходишь домой, когда темно.
Em G F#m H7
Каждый день долго едешь в метро, когда темно.
Em D H7 Em
А она живет в центре всех городов,
Em G F#m H7
 
 
A Dm D Hm
Идешь по улице один.
E A
Идешь к кому-то из друзей.
Dm D Hm
Заходишь в гости без причин
E A C# F#
И просишь свежих новостей.
 
Вступление: C | Cm | C | Cm | G
C
Я гуляю по проспекту,
G
Мне не надо ничего,
E
Я надел свои очки
Am
 
 
Начало: Hm B Hm G (2p)
Hm B Hm G
Я стою в темном углу, я не знаю что случилось со мной
Hm B Hm G
Так много мужчин, и все хотят танцевать с тобой
F#m Hm
Разреши мне проводить тебя домой,
F#m Hm
 
 
Вступление:
Em Em/G Hm7 Em Em/G
E|-----------------|-----------------|-----------------|
H|-----------------|-----------------|-----------------|
G|-------0-------0-|-------0---------|-------0-------0-|
D|-----4-------4---|-----7---7-------|-----4-------4---|
A|---2-------2-----|---5-------5---5-|---2-------2-----|
E|-0-------3-------|-7-----------7---|-0-------3-------|
E
Я собираю чемодан, мне нельзя отступать.
Я заметил свой срок, я заметил свой срок...
Я снимаю папиросу, смотрю в потолок.
Я заметил свой срок, я заметил свой срок...
C#m H E
Мама, я узнал свое утро.
Он заметил свой срок, он заметил свой срок...
 
 
Вступление: F#m | Hm | A | C#m > 2 раза
(в конце вступления Dm-Dsus2-Dm)
C
Ты звонишь мне каждый день,
Hm
Я не знаю, как мне быть,
Am D
Я не знаю, как мне дать
 
D Hm
Саша очень любит книги
C Em
Про героев и про месть,
D Hm
Саша хочет быть героем,
C Em
А он такой и есть.
 
 
G C D
Твоя строял башня с слоновой кости,
G C D
Твоя улыбчив, как юный Бог.
G C D
Твоя не слушал советов сбоку,
C D
И вот твоя башня упал...
 
D A Hm D
Ситар играл.
G A D
Джордж Харрисон, который очень любит деньги,
G A D
Послушал мантры и заторчал.
G A G
Купил билет на пароход и уехал в Дели.
 
 
Вступление:
Em | Em | G | Dsus4 D | Em | Em | G | G > 2 раза
Em
Снова новый начинается день,
G D
Снова утро прожектором бьет из окна,
Em G
И молчит телефон: отключен...
 
E A
В последнее время я редко был дома,
E H
Так,что даже отвыкли звонить мне друзья.
E A
В разьездах, разгулах конца лета симптомы
H A E
Совсем перестали уж мучить меня
 
 
Cm
Сегодня кому-то говорят: \"До свиданья!\"
Завтра скажут: \"Прощай навсегда!\"
F G# Cm
Заалеет сердечная рана.
Cm
Завтра кто-то, вернувшись домой,
Застанет в руинах свои города,
 
Fm# Hm Cm#
Белая гадость лежит под окном,
Я ношу шапку и шерстяные носки.
Мне везде неуютно, и пиво пить в лом.
E D Cm#
Как мне избавиться от этой тоски
Fm# Hm Cm#
По вам, солнечные дни?
 
/Em Hm D A Hm F#m/
Em
Я устал от чужих городов,
D
Я устал колоть этот лед,
C#m Hm
Я хотел бы уснуть, но нет времени спать.
И опять за окнами ночь,
 
Спокойная ночь
Riff 1
E||--------------------------------|-----------------------------------------|
B||--------------------------------|-----------------------------------------|
G||--------------------------0--0--|-0---------------------------------------|
D||--------------------------------|---------------------------0--0—-0—-0—-0-|
A||--0--0--0--3--3--3--3--3--------|---3--3--3--3--3--2--2--2----------------|
E||--------------------------------|-----------
Вступление:
e|-----------------------------------------------------------
h|-----------------------------------------------------------
g|-----------------------------------------------------------
d|------------------5--5----------------0-0-0-0--------------
a|-0-0-0-3-3-3-3--3---3-3-3-3-2-2-2----------5-5-3-2-3-------
e|-----------------------------------------------------------
/Am Am7 G Dm Dm7 Dm6/
 
C С F F G
Стань птицей, живущей в моем небе.
C C F G#
Помни, что нет тюрьмы страшнее, чем в голове.
C C F F G
Стань птицей, не думай о хлебе.
C Em Am F G
Я стану дорогой.
 
 
Em
Снова новый начинается день,
G D
Снова утро прожектором бьет из окна,
Em C
И молчит телефон: отключен...
Em
Снова солнца на небе нет,
 
Вступление.
- удар по струнам вниз
/ - удар по струнам вверх
Em G F# G
--------------- --------- --------- ------
1--0- -0--0--0- -3--3--3- -2--2--2- -3--3-
2--0- -0--0--0- -3--3--3- -2--2--2- -3--3-
3--0- -0--0--0- -4--4--4- -3--3--3- -4--4-
A#m F#
Я сижу в кровати, только что из ванной,
A#m F#
с мокрой головой.
A#m F#
На улице мороз, и рано, как ни странно,
A#m F#
я пришел домой.
 
 
Em C G
Танец на улице, танец на улице в дождь,
Em C G
Зонты, раскрываясь, звучат словно выстрелы ружей.
Em C G F
Кто-то бежал, а кто-то остался здесь,
Em C G
И тот, кто остался, шагает прямо по лужам.
 
A F#m
Пора идти и я готов следовать за тобой.
A
Потом будет поздно, потом будет поздно,
F#m
Пора идти.
A F#m
Чувствуешь волны, мягкие волны за спиной.
 
 
Em Hm
Опять бьет дрожь,
Em Hm
На небе диск полной луны,
Em Hm
Опять идет дождь,
Em Hm
Опять я вижу странные сны.
 
E C E
Я выхожу из парадной, раскрываю свой зонт.
C E
Я выхожу под поток атмосферных осадков.
F# E
Я понимаю, что это капризы природы.
F# E
Мне даже нравится чем-то эта погода.
 
e------------------------------------------
b------------------------------------------
g------------------------------------------
d---------2----------0---------------------
a-----0-2--------0-2--------0-2-3--2-------
e-0-3--------0-3--------0-3----------0-----
Все аккорды идут на барэ (Em,Em7,Hm -- 7 лад,
Am,D7 -- 5 лад,
Вступление: C | Hm | Am D | G
C
Ты звонишь ме каждый день,
Hm
Я не знаю как мне быть,
Am D
Я не знаю как мне дать тебе понять
G
 
 
/F#m Bm A C#m F#m Bm A C#m Am/
C Bm
Ты звонишь мне каждый день, я не знаю как мне быть.
Am D G
Я не знаю как мне дать тебе понять, что я уже не тот.
C Bm
Раньше я тебя любил, но сердце больше не поёт,
Am D G
 
 
/D A/
D A
Я смотрю в окно - мне дождь помыл стекло,
Hm E
И это очень мило со стороны дождя.
D A
Я проснулся утром - мне было тяжело,
Hm
 
 
Em
Ты смотришь назад,
C
Но что ты можешь вернуть назад.
Em C
Друзья один за одним превратились в машины.
Em
И ты уже знаешь,
 
Везде перед началом куплета проигрыш: F#m C#m Hm A (2p)
F#m E
Я повел тебя в ресторан,
F#m E
А потом на такси домой.
F#m E
Ты сказала, что очень рада
F#m E
 
Em
Ты смотришь назад,
C
Но что ты можешь вернуть назад.
Em C
Друзья один за одним превратились в машины.
Em
И ты уже знаешь,
 
 
Am
Уходи, но оставь мне свой номер.
F
Я, может быть, позвоню.
C E
А, вообще, я не знаю, зачем
Am
Мне нужны эти цифры.
 
G
Ты смотришь мне в глаза,
Ты смотришь мне в глаза,
Em
Но темные стекла хранят мою душу.
G
Мы вышли из кино,
Мы вышли из кино,
 
Em C
Мы не видели солнца уже несколько дней,
Am H
Наши ноги утратили крепость на этом пути,
Мне хотелось войти в дом, но здесь нет дверей,
Руки ищут опору, и не могут найти.
Em
Я хочу войти в дом...
 
Вступление:
F#m | F#m | Hm | Hm \
F#m | F#m | Hm | Hm G# A / 2 раза
F#m | F#m G# A |
F#m F#m Hm Hm
A|------------------------------------------9-----9-----9--8----8----8-------|
E|-2—-2-2-2-—4-5-4-5-2-—2—-2-2-2-—4-5-4-5-4-—7-7-7-7-7-7-7-7-7-7-7-7-7-7-7-7-|
F#m F#m Hm G# A (баре)
 
/F#m Hm/
F#m Hm F#m Hm
Черная река-а
F#m Hm F#m /Hm F#m Hm F#m Hm/
Черная-а река-а
F#m Hm F#m Hm
Черная река-а
F#m Hm F#m /Hm F#m Hm F#m Hm F#m Hm/
 
 
Em C Em C Em C Em C
Я вчера слишком поздно лег, сегодня рано встал,
Я вчера слишком поздно лег, я почти не спал.
Мне, наверно, с утра нужно было пойти к врачу,
А теперь электричка везет меня туда, куда я не хочу.
Em C Em C Em C Em C
Электричка везет меня туда, куда я не хочу (2 раза).
В тамбуре холодно, и в то же время как-то тепло,
 
Em G Fm# H
Каждый день ты приходишь домой, когда темно.
Em G Fm# H
Каждый день долго едешь в метро, когда темно.
Em D H Em
А она живет в центре всех городов,
И ты хочешь быть рядом,
G Fm# H
 
Проигрыш: Ab
Db | Gb | Db | Ab > 4 раза
Db Ab
Ты часто проходишь мимо, не видя меня,
Bm Gb Db Gb Db Ab
С кем-то другим, я стою не дыша.
Я знаю, что ты живешь в соседнем дворе,
Ты идешь не спеша, не спеша...
 
Fm Cm# Hm A Gm# Fm
Вечер наступает медленнее, чем всегда,
Утром ночь затухает, как звезда.
Я начинаю день и кончаю ночь,
24 круга прочь, 24 круга прочь,
Я - асфальт.
Я получил письмо от себя себе,
Я получил чистый лист, он зовет к тебе.
 
 
E
Я иду по улице в зеленом пиджаке
A
Мне нравятся мои ботинки
E
А еще красивый галстук у меня
C#m F#m
Я гладил брюки два часа
 
 
вступление: E E7 E6 E
 
E
Я иду по улице в зеленом пиджаке.
A
Мне нравятся мои ботинки,
E
А еще красивый галстук у меня.
 
 
Em Hm Am Hm Em Hm Am Hm
Я из тех, кто каждый день уходит прочь из дома около семи утра.
Em Hm Am Hm Em Hm G Am
Я из тех, кто каждый день уходит прочь из дома около семи утра.
Hm Am
И что бы ни было внизу - холод или жара.
D C
Я знаю точно: завтра будет то же, что и вчера.
 
 
Em Hm Em
В этом мотиве есть какая-то фальшь,
G D Em
Но где найти тех, что услышат ее?
Em Hm Em
Подросший ребенок, воспитанный жизнью за шкафом,
G D Em
Теперь ты видишь Солнце, возьми - это твое!
 
 
E
Надоело ходить на работу,
Каждый день к девяти на работу,
H
Я нашел выход,
E
Я хочу быть кочегаром. кочегаром, кочегаром.
E