Аккорды к песням для гитары

«Кирпичи» аккорды

Тема играется в D-grup (Это когда 6 струна строется в РЕ под 4)
В скобках я просто указываю лад т.е пережимаешш три басовые струны на этом ладу
D(12)
a#|--1------
E|--1--3---
B|--1--3---
G|--1--3---
D|--1------
 
Бас в начале играет так:
A|-------2-2-2-----5-4--4--4-5-4-|
E|--0-0-3------3-3---------------|
И так далее.
Текст:
Come on now Get Down Come On Now
Come on now Get Down Come On Now
Вчера под утро я видел сон.
Все время играется рифф:
E||---------------------|-------------------------|
H||---------------------|--3-----3-----3--3--5----|
G||---------------------|--4--x--4--x--4--4--4----|
D||---------------------|--5--x--5--x--5--5-------|
A||----------------2----|-------------------------|
E||--0----0--3--4-------|-------------------------|
Хотя мелодии соответствует другой аккомпанемент:
 
ПРИПЕВ.
E--------------5-7-8-7-5--------------- -5-5-5----7-7-7------------5|
H------------- 5-7-8-7-5--------------- -5-5-5----7-7-7--------------|
G------------- 5-7-8-7-5--------------- -5-5-5----7-7-7--------------|
D---7--7---------------------------7--7---------------------------------|
A---7--7---------------------------7--7---------------------------------|
E---5--5-------------------------- 5--5---------------------------------|
КУПЛЕТ
 
песня играется в E так:
Вступл. E E EE6E7 E6 E E E E6 E7
или просто так: 5|--2-2---2-4-5-4--2--- 2 2 444 555
И вощем все в E.....как хотите так и играйте
Дальше:
Сегодня я гуляю, меня выгнали с работы
Денег не дали – выпить охота
Кинули, кинули, меня на деньги кинули.
 
B5 A#5 G#5 Представь себе, что ты лежишь в ГРОБУ! Тебе так сыро и тепло ! С червями ты ведешь борьбу ! Но ...
 
 
E---0---0---0--|
B--------------|
G--------------|
D--2---2---2---|
A--------------|
E-3--32--20--00|
ИЛИ
E------------------|
 
Рифф куплета: E D A H
Рифф припева: E C#m E C#m
В знак протеста -
Не стою на месте,
Я здоровый, умный
И красивый.
Гадом буду,
Мудаки повсюду -
 
 
Куплет очень быстро играем E5 – D5 — A5 – B5
Припев — E5 — C#5 – E5 — C#5
Припев.
В знак протеста —
Не стою на месте,
Я здоровый, умный
И красивый.
Гадом буду,
 
 
Начало звучит так:
G A E
Текст:
Когда совсем я разбогатею
Я стану намного добрее
Надо ловить за жопу удачу
А я вроде это умею
Вот он а может не он,
 
 
Вся песня играется на G – A – E – E
Проще некуда
G
Когда совсем я разбогатею,
A
Я стану намного добрее.
E
Надо ловить за жопу удачу,
 
 
F5 G#5 Bb5
Я помню страшный день,
F5 G#5 Bb5
Начался ужасный бал,
Изгоняя с мира лень,
Вдруг обрушился металл.
Черный свет извергло солнце,
Торжествуют силы зла,
 
F Em
Я помню страшный день,
G E
Начался ужасный бал,
F Em
Изгоняя с мира лень,
G E
Вдруг обрушился металл.
 
Bass part: Бас партия аналогична гитарной
Em
Водка! Плохо! Водка! Плохо! Плохо!
Водка! Плохо! Водка! Плохо! Плохо!
Проигрыш:
Fuzz or Drive
---------------------|
---------------------|
 
Riff 1 (на каждом слове делаете удар по E5, затем сразу глушите аккорд):
1------|
2------|
3------|
4|--2--2--2--2--2--|
5|--2--2--2--2--2--|
6|--0--0--0--0--0--|
Riff 2:
 
Аккорды расставлены по тексту.
          E                      D                   G A              E
Все поют девичьим хором сокровенные мечты.
Скоро выгонят с позором, это будешь только ты
В пользу голода и жажды мы обратно повернем,
Что бы знал реально каждый когда рухнет этот дом,
            G      A            E
Что когда падет твой дом
 
 
D5 G#5 A5 D5 G#5 A5
Русские поля и белые березы.
D5 G#5 A5 F5 E5
Удаль молодецкая и девичьи слезы.
Золотая осень. Прекрасная природа.
Картошка, капуста - родные огороды.
Ты несешься в санках по солнечному снегу.
Ты даешь отпор дубиной печенегу.
 
 
Вступление (4 раза):
E5 D5 C#5 G5 A5
E|---------------------------------------------------------|
H|---------------------------------------------------------|
G|--9-9--7-7-7-7--6-6-6-6-6-6------------------------------|
D|--9-9--7-7-7-7--4-4-4-4-4-4-----5-5-5-5-5-5--7-7-7-7-7-7-|
A|--7-7--5-5-5-5--4-4-4-4-4-4-----5-5-3-5-5-5--7-7-7-7-7-7-|
E|--------------------------------3-3-3-3-3-3--5-5-5-5-5-5-|
Рифф припева:
G||----------------------|--------------------|
D||----------------------|--------------------|
A||------------3--3------|--------------------|
E||--3--5----------------|--3--5--------------|
Рифф куплета:
G||----------------------------|
D||--------7-------------------|
 
Вступление: D+7 A+7 - 2p. D+7 E A+7 - 2p.
A
Смешное расстояние - четыре электрички
D
Уже проснулась - клёво, давай искать нычки
A
Погода почти как в Питере, что-то давно тусуемся
D
 
 
В припеве D лучше брать 000222
            A
Смешное расстояние — четыре электрички
    D
Уже проснулась — клёво, давай искать нычки
    A
Погода почти как в Питере, что-то давно тусуемся
    D
 
 
Гитара на протяжении всей песни:
G 9--12-9-7--------7--
В ----------9--7-9----
Em
Это возвращение джедаи, нас опять ожидают.
D
Мир у наших ног, ну что, поджигаем?
Em
 
соло:
- 1)- - - - - - - - - - - - - - - - - - - - -
- 2)- - - - - - - - - - - - - - - - - - - - -
- 3)- - - - - - 7 - - - - - - - - - - - - - -
- 4)- 9 - 7н9 - - 9 - 7 - - - - - - - 7 -
- 5)- - - - - - - - - - - - - 9 - 7н9 - - -
- 6)- - - - - - - - - - - - - - - - - - - - -
ритм: H5 G
 
 
Am G
Это возвращение джедаев, нас опять ожидают.
Em Dm
Мир у наших ног, ну что, поджедаем?
Все не просто так, в моих словах конкретность,
Засунь себе поглубже свою политкорректность.
У меня нет задачи подбирать к тебе ключ,
Я мужик, я угрюм, волосат и вонюч.
 
 
Am
Это возвращение джедаи, нас опять ожидают.
G
Мир у наших ног, ну что, поджигаем?
Am
Все не просто так, в моих словах конкретность,
G
Засунь себе поглубже свою политкорректность.
 
 
БАсс
1-вариант
G)------7---------------
D)-9-7н9--9-7-------7---
A)-------------9-7н9----
E)----------------------
2-вариант
G)---------------------------------
 
Dm C#m
Сегодня я чище чем обычно одет
Today так называемый выход в свет
Буду в темноте всю ночь ходить как гусь
По крайней мере ладно нормально наберусь
Вся эта RnB\'ия мне по барабану
Вряд ли будет понятно модному барану
Вряд ли будет понятно какой-нибудь овце
 
 
C C6
У меня есть мечта – купить ящик пива
Cmaj7
Это плохо, ведь есть и другие мечты
Я люблю кататься на метро рано утром
Не прислоняться – в дверях отражаешься ты
Я люблю встречать людей на эскалаторе
Ты вверх – они вниз, ты им машешь рукой
 
C G
Устал я от жизни
C G
Замучали гады
C G Am G
Куда-то переться ломает, но надо
Квартира – помойка
Одно невезенье
 
 
Мелодия песни:
G|-4-4-4-6-3-3-3-3-4-4---
Intro: 4x
H5 F#
G|-4-4---------
D|-4-4-4-4-4---
A|-2-2-4-4-4---
E|-----2-2-2---
 
C G C G C G C G
C G C G
Устал я от жизни, замучили гады
Куда то перется ломает но надо
Квартира помойка, одно невезенье
Долой все попойки бросаю куренье
Оставь не дай боже мои недостатки
По морде получешь с меня взятки глатки
 
 
E
Сегодня наступило. Я проснулся в два утра.
A7 G7
Погода, хвала Аллаху, лучше, чем вчера.
Подруга позвонила. Передавай всем привет.
Вечером концерт. Больше дел особых нет.
Это хорошо. Можно расслабиться до завтра.
Яичница с беконом - типичный завтрак.
 
 
A H D E A
1|--5—-------|--------5——7—-------|-----2-—5-----4-—7--|--5—----------|
2|-----5-----|-----5--------7-----|--3--------5--------|-----5--------|
3|--------6--|--6--------------8-----------|--------6-----|
4------------------7--|
(Пухну я от вашего вранья!
Все фигня, болтовня, не для меня!)
A
 
Riff 1
intro&verse(grunge) / x - мертвая нота
C#5 H#5 B
E--------------------------------------
B--------------------------------------
F|--6----6----6---5----5----5---3--3--3----3--3--3-
A|--6--х-6--х-6-х-5--х-5--х-5-х-3--3--3----3--3--3- ( x 4 )
D|--4--х-4--х-4-х-3--х-3--х-3-х-1--1--1----1--1--1-
 
Вступление: Em G D > 2 раза
G D C G D Em > 2 раза
Em C
Ира, не сотвори себе кумира.
Довольно, я тоже плачу, если больно.
Так грустно, вокруг так холодно и пусто.
Я рядом, скажи, а это тебе надо.
G D C
 
 
Em Dm
Поднимается солнце и течет вода
Am
К морю с горы. Так будет всегда.
Дерево растет. Бросает в землю семя.
Я подумал: "Как быстро летит время".
Мы веселимся, живем беспечно.
Страшно подумать - целая вечность
 
 
Вступление: Am | Am | Gm | F#m
Am
Начинается явно прекрасный день лета
Даю сегодня 23 уверен в этом
Gm
Скоро не скрыться будет нам от жары
А ночью светло атакуют комары
Радует видами без снега природа
 
 
Вступление: G5 E5 | E5 | C5 H5 | E5 > 4 раза
E D
Надпись "Не курить!" давно уже погасла.
Расслабтесь, ребята, это не опасно.
Давайте-ка заценим прекрасную картину:
Нарисовались "Кирпичи" - долой дисциплину.
На этой теме я уже сто лет езжу.
Был стрэйт эйдж - нету стрэйт эйджу.
 
 
Гитара и бас.
(структура та же, но если вам не нравится звук играйте фигуру
в другой тональности.)
G----------------------------------------------|
D----------------------------------------------|
A------------------------------------------2-2-|
E|--3--3-3--6--6-6--3-3--3-2-2--3--3-3--6--6-6--3-3--3-----|
Ну теперь:
 
Вся песня играется рифами, возможно на акустической гитаре
E:-|---|---|---|---|---|---|---|---|---|---|
H:-|---|---|---|---|---|---|---|---|---|---|
G:-|---|---|---|---|---|---|-4-|---|---|---|
D:-|-7-|-5-|-4-|-3-|-2-|-2-|-4-|-5-|-2-|-2-|
A:-|-7-|-5-|-4-|-3-|-2-|-2-|-2-|-5-|-2-|-2-|
E:-|-5-|-3-|-2-|-1-|-0-|-0-|---|-3-|-0-|-0-| - эта тема идет на вступлении, и на припеве
На куплете играется:
 
Am
Видел звезду, которая вниз летела, сгорая дотла
Это был неба каприз и небо сгорало от стыда
C Em C Em
За то, что оно дарила надежду и веру людям
C D C Em
Которых потом убило И мне ничего не будет
Am Em
 
 
C
Живу хорошо дело пошло
Em
Верные друзья я уже большой
Все смешно но в вечерний час
Это повторяется каждый раз
Я без тебя совсем устал
В городе далеком я треш играл
 
 
D F# G E
Снова весна и поетому прет,
Был я зависим а Щас не зависим!!!
Выстрел был дан, надо двигать вперед.
Мы никогда не виснем!!!...
Припев:
A# G D
Новый порядок - кровь,
 
 
Riff котторый играется в припеве и куплете.Вот так.
|-----------------------------------------
|-------------------------------------------
|--7------4--------------------------------
|--7------4-------------5------7----------------------
|--5------2-------------5------7------------------------
|-----------------------3------5------------------------
Riff 2.
 
Intro: A/F#m/D/E - просто провести по струнам (2 раза)
A C#m E
Мы вам тут играем
Hm F#m E
Мы вам тут поем
A C#m E
А кто-то очень умный
Hm F#m E
 
 
Em A
Пережить эту ночь. Пережить эту ночь. > 4 раза
Em
Бесконечный вечер, казалось бы, субботы.
A
Только идиоты сводят с жизнью счеты.
Думаешь ты и не воюешь с тоской.
Как же ты дошла до жизни такой?
 
 
Втупление: G Em > 2 раза
G
Паршиво выглядишь сегодня,
Em
Позвонил ты только жди.
G
Улыбка сводит зубы так,
Em
 
 
ИНТРО и основной рифф:
(то есть этот рифф гитара играет весь куплет,
а аккорды проставлены чисто как тональности)
(E) (A)
E|-4--4--X--X--4------8--7--5--
B|-5--5--X--X--5--5------------
G|-4--4--X--X--4--6------------
D|(2)-------------7------------
Вступление: E | A
E A
Как бы мне избавиться от вредной привычки -
E A
Сигарета есть, но кончились все спички.
Соблюдал бы я диеты всяких там хардкоров,
Я б сейчас смотрелся как Филипп Киркоров.
Я был бы большой и делал бы шоу,
 
 
В куплетах используются два варианта бас-партии:
G|---------------------|
D|---------------------|
A|-2---2-2-2-----------|
E|-----------3---3-2-2-|
G|---------------------------------|
D|---------------------------------|
A|-2-2-2-2-2-2-2-2-----------------|
 
G
Где бы ты ни был, куда бы ты не шел,
Друг всегда с тобой и это хорошо!
Em
Если тебе вдруг станут бить морду,
Друзья отгонят злыдней, я знаю твердо.
C
Если вы с другом не поделили бабенку,
 
 
Подбор:
G
Где бы ты ни был, куда бы ты не шел
Друг всегда с тобой и это хорошо
Em
Если тебе вдруг станут бить морду
Друзья отгонят злыдней, я знаю твердо
C
 
 
Am G Am
Рабочий класс мира быть должен другим
Am G Am
Рабочий класс мира быть должен другим
Am G Am
Ты вязнешь в болоте ничтожных проблем
Am D G Am
Потребляешь продукт, ты глух и ты нем,
 
 
Интро-без басса...
Припев
G -------------------------------------------------------------------------
D ------------------------------------------------------------------------- 2 раза
A -------------------------------------------------------------------------
E --4-4-4-4-4-4-4-4-3-44444444-4-4-4-4-4-4-4-4-2-0-1-2---0-1-2---0-1-2-0-1-
Последние два припева к нему будет прибавляться
G ----------------------------------
 
Dm Bb G C
Плавают разными стилями, тонут одним.
Dm F Em G
Минус один, чьи-то розы на подоконнике.
Dm Bb G C
Тетка с косой на пороге , наверно, за ним,
Dm F Em G
Некредитоспособные люди отдают долг покойнику.
 
Dm F G C(3)
Плавают разными стилями, тонут одним.
Dm F G C(3)
Минус один, чьи-то розы на подоконнике.
Dm F G C(3)
Тетка с косой на пороге , наверно, за ним,
Dm F G C(3)
Некредитоспособные люди отдают долг покойнику.
 
Все аккорды играются на барре:
F# C# G# H(7 лад)
Плавают разными стилями тонут одним
F# A G# H(7 лад)
Минус один, чьи-то розы на подоконнике
F# C# G# H(7 лад)
Тетка с косой на пороге наверно за ним
F# A G# H(7 лад)
 
 
Играем Dm – A# — G – C – Dm – F – Em – G
riff
————————————-
————————————-
-8—5—8—7-5-6-7-5-6-7-5-6-7-6-5-
-8—5—8—7-5-6-7-5-6-7-5-6-7-6-5-
-6—3—6—5-3-4-5-3-4-5-3-4-5-4-3-
————————————-
 
 
C
Елка зеленеет, телик блестит.
G
Новый год хардкором в Россию летит.
Конь не валялся. Моем посуду.
Ящик вопит. Галкин повсюду.
Юмор доконал. Елена Воробей.
Сколько же можно? Ладно, забей.
 
 
E
Детка сюда неси свое тело
Душу неси есть одно дело
Видом своим ты меня атакуешь
Ты так прекрасно сегодня танцуешь
Хочешь со мной правильный выбор
Что-то я не понял когда этот выбыл
Он забоялся твоей красоты
 
 
ТЕМА:
4|-----3---3------------------|
5|-3-----3---3---0-3----0--1--| На протяжении всей песни.
6--------3--------|/ Даже у самого пока плохо получается.
БАСС:
5|-3-------------0---1---2----|
Проигрышь:
12-3-333-3-33---2-1-|
 
Пройгрыш:
E A G E
E A G E
Ты моя скво.
E A G E
Тебе повезло.
C черезс# D E
Ты будешь мной.
 
 
Bass:
и так далее...
G----------------------------||
D----------------------------||
A||--------3h-----------------------------|--------3h------------||
E||--3h-5-----5--5----5--5--|--5----5--5--5--5--5--5--|--3h-5-----5----------||
Сколько народа упало из окна ?
G--------------------------||
 
E B A a
E B A a
Как бы мне избавится от вредной привычки
Сигарета есть, но кончились все спички
Баре, а лучше квинтами
E A
Плюю я в воду с парапета,
B E
 
 
b - bend (машинка)
. - стаккато
riff 1 (G5, F#5, E5)
Main guitar:
Eb|---------------------------------|
Bb|---------------------------------|
Gb|---------------------------------|
Db|-5-5-5-5-5-4---2-----------------|
 
Прикол этой песни в том, что она играется на электрогитаре с примочкой НА ОДНОЙ СТРУНЕ(хотя можно в одном мес...
 
 
Рифф 1:
G5 E B5 D5 C#5 H5 B5
G|----------------8--7-7-7-6-6-6-6-6-4-4-3-3-3-3-|
D|-6-6-6-6-6-2-2--8--7-7-7-6-6-6-6-6-4-4-3-3-3-3-|
A|-6-6-6-6-6-2-2--6--5-5-5-4-4-4-4-4-2-2-1-1-1-1-|
E|-4-4-4-4-4-0-0---------------------------------|
Рифф 2:
D|---------------2-2-1-1-1-1-1-|
 
Вступление/основной рифф (бас):
G|---------------------------------------------------|
D|---------------------------------------------------|
A|---6------5---5------------------------------------|
E|-4---4/3----3---3----------------------------------|
Основной рифф (гитара):
D|---------------------------------------------------|
A|-6/5-Х---------------------------------------------|
 
Cm
Серьезный и солидный молодой мужчина
Берет микрофон и зачитывает чинно
Леди и джентельмены стоят вокруг культурно
Все так прилично и так литературно
Вот это да оба-на вот я себе представил
Моя игра воображения это игра без правил
Все гораздо проще Кирпичи опять здесь
 
 
Em
Знакомтесь я царь я строг и справедлив
A#
Народ меня увидев ощущает чувств прилив
На балкон я выхожу с природной грацией
Люди в восторге начинается овация
Подданные с трепетом слушают указ
Люди ликуют все идут в пляс
 
 
С
Ну вот слава Богу из клуба мы вышли
С A#
Утро совсем залезть бы на крышу
Злая тусовка едет домой
Счастье какое остаться с тобой
В 5:45 на петропавловском пляже
Мысли о том чтобы спать нету даже
 
 
последняя струна ( шестая) идет под рэ D.
Т.е. спускаете
последнюю струну что бы она шла в унисон с четвертой.Ну вот и сама песня:
Вступление 4х
E---------------------------------------------------------------------
H---------------------------------------------------------------------
G---------------------------------------------------------------------
D----3/2--2-2---3/2--------------------------------------------------
 
Riff 1:
F#5 F F F#5 F F A#5 C5 C#5
1---------------|
2---------------|
3------3-3-5-6--|
4|--4/3-3---2/3-3--3-3-5-6--|
5|--4/3-3---2/3-3--1-1-3-4--|
6|--2/1-1---4/1-1-----------|
 
вступление:
бас: E|-4--3-4--3-487 |x4
гитара: G#-G-G#-G-C-H |x4
В куплете играет бас:
E|-0000-7777-3333-7873
И иногда Вася играет E (послушайте сами когда)
Ну, что школьнички?Как вам музычка?
Типа..как в тубзике с пестиком?Зычко?
 
e5 (несколько раз, послушайте запись лучше, там глушить струны еще надо) т. е.
palm mute (так яснее)
e5 A#5 a5
e---------|
H---------|
G---------| так Вася играет на концерте
D|----------3----2----|
A|----2-----1----0----|
 
Em7
Встретились в кафе в семь или позже
Am7
Она смущенно улыбалась я вроде тоже
Некоторое время мы гнули салфетки
Непрерывно курили и отдирали этикетки
В прошлую субботу была в ударе она
Теперь я был смущен она была смущена
 
 
E
Последний раз когда я видел ее, помню прилетел из Кишенева.
C#m
Пили вино в самолете с Сашей из группы "Сплин", было клево.
F#m
Был прекрасный летний день, кажется день десантника.
E
Солнце. Что же можно ожидать еще от такого классного праздника.
 
 
riff1:
G#m H5 G#m F#m
G---------------4-4----------------------------
D-6-6-6-6-6-6-6-4-4-6-6-6-6-6-6-6-4-4----------
A-6-6-6-6-6-6-6-2-2-6-6-6-6-6-6-6-4-4----------
E-4-4-4-4-4-4-4-----4-4-4-4-4-4-4-2-2----------
riff2:
G#m H5 G#m F#m