Аккорды к песням для гитары

«Король и Шут» аккорды

*Dm *Gm A
П'ятий у сім'ї, прізвисько Махно.
*Gm F E A *Dm
Не дає заснути, мій турбує сон.
Хитрий як змія, скільки душ згубив?
Мало не вмивався кров'ю ворогів.
 
A *Dm C F
 
Вступление: Am | G | F | G > 4 раза
Am G
Открыл глаза,
F G
Поставил чайник,
Кипит вода,
Не сплю ночами.
Открыл окно,
 
 
Вступление :
Em C D
Don't crucify me, I'm no Jesus
I'm a sinner
Еm
You can blame me for the world is mad
Am B
And the good old rock'n'roll is dead
 
 
Вступление :
Em C D
Don't crucify me, I'm no Jesus
I'm a sinner
Еm
You can blame me for the world is mad
Am H
And the good old rock'n'roll is dead
 
1 к:
A G
Every night when I was born,
C D
Yellow people genered night.
D G
Every night of every shkate,
C D
 
 
*Am______G
Открыл глаза,
F__________G
Поставил чайник,
Кипит вода,
Не сплю ночами.
Открыл окно,
Аптека, скверик,
 
Вступление:
Am | G | F | G > 4 раза
Am G
Открыл глаза,
F G
Поставил чайник,
Кипит вода,
Не сплю ночами.
 
 
Am G
Ослепший, старый маг,
Em F
Ночью по лесу бродил.
Am G
На кладбище разлил,
Em F
Он волшебный элексир.
 
I.
Am C
Молча брожу я средь полей
Dm E
Тоскую, грущу о даме своей
Am C
Как дорога, она мне была
Dm E
 
 
*Am
Я снова пьян,
Но пьян не от вина,
F
А от веселья я
E
Пьян.
И хоть я сам
 
Am
Я снова пьян,
Но пьян не от вина,
F
А от веселья я
E
Пьян.
И хоть я сам
 
 
Вступление: H7 H7 H7-H7-H7 H7 H7-H7-Em
H7 [2 2 4 2 5 2]
E A D G H E
Em Hm
Ужасней истории вы не найдете,
Em Hm
И нету баллады печальней на свете,
A# Em
 
F Am
Увидел я ее в смирительной рубашке
Hm Em
Она сказала: "Никому я не нужна"
Вчера соседу проиграла в шашки
Кому пойдет такая глупая жена
Я утешал ее-не унывай,родная
Сказать по правде,все мы не в своем уме
 
verse1:
F# F C Am
Какой таинственной казалась мне та ночь
F D
Я затушил свечу я стал ждать
C Am
Чего не зная
F G C
 
G A Hm A
Какой таинственной казалась мне та ночь
G A
Я затушил свечу я стал ждать
D F# Hm
Чего не зная
G A D
В тишине вдруг представилось мне:
 
 
Ступил бродяга на крыльцо
И постучался в дверь.
-Гостям я рад,- сказал старик
-Но парень, мне не верь,
-Ты будешь сыт и отдохнешь
-У деда на печи.
-Должно быть, дед, ты это врешь
–Ну, милый, не взыщи.
 
E A H
Бродяга сел на жесткий стул - "Четвертый день в пути!
E A H
Ты, дед, со мною не шути, согрей и приюти!"
A H E C#m
"Не смею гостю отказать, что хочешь - то проси!
A H A H E
А лучше в погреб полезай, картошки принеси!"
 
 
G Hm G Hm
Звени бубенчик, мой звени, гитара пой шута напевы
C D G Em C D G
Дай я вам песенку спою, как шут влюбился в королеву(2р.)
В одном из замков короля, в саду прекрасной королевы
Придворный шут играл и пел, король любил его напевы
Вот королева говорит, исполни шут мне серенаду
А коль затронешь сердце мне, получишь поцелуй в награду
 
 
Em
Времечко настало, жить хреново стало,
G A
Моряки твердили: "Дело - дрянь!"
Шли мы не по плану, верили обману,
И на корабле царила пьянь.
В трюмах споры, каждый вечер ссоры,
Если хочешь выжить – первым бей!
 
Em7
Авантюрист,
Hm7
Прирожденный артист
A
И убежденный
Am
Поэт - анархист,
 
Em
Брел в ночи домой я,
Am Em
Был слегка навеселе,
А вокруг спокойно,
Ни души во всем селе.
C G
Тут-то и увидел
 
 
(оригинальная тональность C#m)
Dm C B Am Gm A
Очнулся в темном подземелье он.
Dm C B Am Gm C
За дверью вдруг послышались шаги.
Am Dm B C
Я знаю точно - это всего лишь страшный сон!
Am Dm B Gm
 
 
Вступление:
H | G#m | F# > 2 раза
G
Себе шепну:
D
«Признайтесь, граф,
A
В том, что ваш друг
 
Слова и музыка - А.Князев
Note: Табы составлены по обработанным мной материалам сборника
"30 песен группы Король и Шут"
E5 C5 D5 A5 G D
e|-----| e|-----| e|-----| e|-----| e|--3--| e|--2--|
B|-----| B|-----| B|-----| B|-----| B|--3--| B|--3--|
G|-----| G|-----| G|-----| G|-----| G|--4--| G|--2--|
D|--9--| D|--5--| D|--7--| D|--7--| D|--5--| D|--0--|
D C D# D C
D
Ноги тащат по земле
Тыща лет во мгле!
G|-7-----------5-----------8---7-6-
D|-7-----------5-----------8---7-6-
A|-5-0-0-0-0-0-3-0-0-0-0-0-6-0-5-4-
E|---------------------------------
Dm
Ноги тащат по земле
Тыща лет во мгле!
G|-7-----------5-----------8---7-5-
D|-7-----------5-----------8---7-5-
A|-5-----------3-----------6---5-3
D|---------------------------------
Dm
 
Hm D Em F#
В одном селе жила несчастная вдова
Hm D Em F#
С тех пор как умер муж все одинешенька была
G A D Hm
С рассвета до темна спасалась, как могла
Em G A F# Hm
От соседа Иогана горбуна
 
Am C Dm E
В одном селе жила несчастная вдова
Am C Dm E
С тех пор как помер муж все оденешенька была
F G C Am
С рассвета до темна спасалась как могла
Dm E Am
От соседа Иогана Горбуна
 
 
Hm G Em F#
В одном селе жила несчастная вдова
Hm G Em F#
С тех пор как помер муж, все одинешенька была
G A D Hm
С рассвета до темна спасалась как могла
G AF# Hm
От соседа Иогана-горбуна
 
 
INTRO:
D---------------------------------------|
A|-------10-10---------------------10-10------------|
E|-12-12-------12-12--10-10--12-12------7-7--10-10--|
--------------------------------------------------||
-------10-10--------------------------------------||
-12-12-------12-12--10-10--7-7--6-6--5-5--4-4-----||
D-------------------------------||
 
Проигрыш:
Am C Am G Am C Am
H|-5---8--5------5---8--5---|
G-7-------------|
Мелодия:
E-----------|
H|-5-5---5-8-5----5-|-5---5-8-5-----|
G|-----7-------7----|---7-------7-5-|
Вступление:
1)----5----8----5----3----5----8----5----------------
2)----5----8----5----3----5----8----5----------------
3)---------------------------------------------------
4)---------------------------------------------------
5)---------------------------------------------------
6)---------------------------------------------------
Основная мелодия для куплетов (по-видимому ее играет гитара)
 
G#m Em7
Дождливой ночью парень, выбравшись из леса
H D7#
Вдруг одинокую избушку увидал,
"Надеюсь, там мне до утра найдется место,
Я страшно голоден и очень уж устал".
Старуха дряхлая скитальцу дверь открыла,
Пустила в дом и не спросила ничего.
 
 
Табулатура - Afazel (подбор)
Вступление:
A
-------------------------------------------------------
-------------------------------------------------------
-------------------------------------------------------
----------5-------------------------5-------------9~~--
------7-8---8-7-8-7-8-7-8-------7-8---8-7-8-7-8-7------
C#m
Сказал он:
F#m
Эта тварь приходит ночью
H A
Ровно в три от церкви у холма.
C#m F#m
Но я ведь не сошел еще с ума,
 
 
Основная мелодия в припеве:
A D E A A D E A
E-9-7-9-7-10-9-7--7-5-7-9-7-5---9-7-9-7-10-9-7--7-5-7-9-5-
B---------------------------------------------------------
G---------------------------------------------------------
D---------------------------------------------------------
A---------------------------------------------------------
E---------------------------------------------------------
C#m G#m A H
G|-6----4-6--------------------|
D|----6-------6-7--7-6-4-------| repeat
A|-----------------------7--6--|
C#m G#m A H
Услыхал мужик под вечер вдруг,
В свою дверь какой-то странный стук,
Но, едва шагнул он за порог,
Сольник со вступления:
D|-5-0-3-5-0-1-1-1-----|
A-----3-1-0|
E----------|
C#m G#m A H
Услыхал мужик под вечер вдруг,
В свою дверь какой-то странный стук,
Но едва шагнул он за порог
 
Вступление: (4 раза)
A G
E|-----------------------------|
B|-----------------------------|
G|-----------------------------|
D|-----------------------------|
A|----4-5--4--------4-5--4-5-7-|
E|-5---------5-4-3-------------|
Em Am G
Стал колдун одержимым злом чтобы спасти душу его
Em Am G (C G Am H)
Решили мы всем селом с ним сотворить кое-чего
Помню ярость безумных глаз он не скрывал злобу свою
Он всех ненавидел нас да я вернусь слово даю
C G Am
Он до конца довел свою жуткую роль смеялся в огне не
 
Вступленьице:
Луна средь звезд на темном пастбище блуждала,
Трактир был слева; справа лес стоял стеной,
И с высоты луна безмолвно наблюдала
За тем, кто всюду по пятам ходил за мной.
В пустом трактире за столом сидел я молча,
Курил махорку я и думал о своем.
Взглянул в окно, стал любоваться темной ночью
Интро: (Князь)
Луна средь звезд на темном пастбище блуждала
Трактир был слева,справа лес стоял стеной
И с высоты луна безмолвно наблюдала
За тем,кто всюду по пятам ходил за мной
В пустом трактире за столом сидел я молча
Курил махорку я и думал о своем
Взглянул в окно,стал любоваться темной ночью
 
 
Луна средь звезд на темном пастбище блуждала
Трактир был слева,справа лес стоял стеной
И с высоты луна безмолвно наблюдала
За тем,кто всюду по пятам ходил за мной
В пустом трактире за столом сидел я молча
Курил махорку я и думал о своем
Взглянул в окно,стал любоваться темной ночью
Крыльцо увидел,человек лежал на нем
 
Луна средь звезд на темном пастбище блуждала
Трактир был слева, справа лес стоял стеной
И с высоты луна безмолвно наблюдала
За тем, кто всюду по пятам ходил за мной.
В пустом трактире за столом сидел я молча,
Курил махорку я и думал о своем.
Взглянул в окно, стал любоваться темной ночью
Крыльцо увидел, человек лежал на нем.
 
 
Луна средь звезд на темном пастбище блуждала
Трактир был слева,справа лес стоял стеной
И с высоты луна безмолвно наблюдала
За тем,кто всюду по пятам ходил за мной
В пустом трактире за столом сидел я молча
Курил махорку я и думал о своем
Взглянул в окно,стал любоваться темной ночью
Крыльцо увидел,человек лежал на нем
 
 
Луна средь звезд на темном пастбище блуждала
Трактир был слева, справа лес стоял стеной
И с высоты луна безмолвно наблюдала
За тем,кто всюду по пятам ходил за мной
В пустом трактире за столом сидел я молча
Курил махорку я и думал о своем
Взглянул в окно, стал любоваться темной ночью
Крыльцо увидел, человек лежал на нем
 
 
Луна средь звезд на темном пастбище блуждала
Трактир был слева,справа лес стоял стеной
И с высоты луна безмолвно наблюдала
За тем,кто всюду по пятам ходил за мной
В пустом трактире за столом сидел я молча
Курил махорку я и думал о своем
Взглянул в окно,стал любоваться темной ночью
Крыльцо увидел,человек лежал на нем
 
(G# A): E|-4-5-5-5-| > 4 раза
(F# G): E|-2-3-3-3-| > 4 раза
(G# A) Чудак Алонс дурацкий трюк проделывал не раз,
(F# G) Кладя в стакан перед собой косой свой левый глаз,
(G# A) Готов за деньги был старик свой фокус повторять,
(F# G) За всеми из стакана он мог глазом наблюдать!
Em G A Em
Из стакана мутный глаз
 
Dm Bb C F Em
Ночью воры влезли в музей,
Dm Bb C F Em
И один другом сказал:
Dm Bb C F Em
"Ты, брат бери, что хочешь, только скорей,
Dm Bb C F Em Dm Bb C Dm Bb C
А я сгоняю пока в тронный зал, я мигом."
 
Порою возвращает меня память
В тот страшный летний день,
Когда, бредя вдоль речки безымянной,
Наткнулся я на труп несчастной женщины.
Она лежала, запрокинув свою голову,
А шее рану я увидел безобразную.
Откуда здесь она, босая, полуголая,
Какой-то грязью непонятной вся измазана.
 
Em Am D G
Дремлет за горой мрачный замок мой,
C Am H
Душу мучает порой царящий в нем покой.
Я твоих фантазий страждущий герой,
О любви моей живой все образы со мной.
Припев:
Em Am D H Em
 
Intro:
||--------0-2-|
||--0-1-3-----|
||o-----------|
||o-----------|
|-|
|-|
Em Am
 
Am Dm G C
Дремлет за горой мрачный замок мой
F Dm E
Душу мучает порой царящий в нем покой
Я своих фантазий страждущий герой
О любви моей живой все образы со мной
Припев:
Am Dm G Am
 
 
D5 G5 C5 F5
Дремлет за горой, мрачный замок мой.
A#5 G5 A5
Душу мучает порой, царящий в нем покой.
Я своих фантазий страждущий герой,
А любви моей живой все образы со мной.
припев:
D5 G5 C5 F5 A#5
 
 
E--------------------------------232~~|
H-------------------------------------|
G-------023--0235320----02320---------|
D--024---------------33---------------|
A-----------------------------65------|
E-------------------------------------|
Звучит хорошо
 
Порою возвращает меня память
В тот страшный летний день,
Когда, бредя вдоль речки безымянной,
Наткнулся я на труп несчастной женщины.
Она лежала, запрокинув свою голову,
На шее рану я увидел безобразную.
Откуда здесь она, босая, полуголая,
Какой-то грязью непонятной вся измазана.
 
 
Gm Ab
Мир как "дважды два - четыре",
F F#dim
Исключения в нем редки.
Все продажно в этом мире,
От блондинки до брюнетки.
И не стоит сладкой лире
Доверяться сгоряча:
 
 
Вступление:
Hm | D | C# > 2 раза
Hm D C#
Вечерело, солнце опускалось,
Вячеслав заснул на гамаке.
Одолела мальчика усталость,
Hm G
Кровь текла по раненой щеке...
 
 
Intro:Am,Em,C,Am,G
Вступление играется непростым боем,
можно играть медиатором.
Am Em C Am G
Шах и мат,Генрих рад
Am Em C G
Он король,на белом коне:
Am Em C Am G
 
 
G Em
Шах и мат -
Am F
Генрих рад!
G Em
Он - король
Am F
На белом коне.
 
 
Intro: E G A D
E G F D
Verse 1:
E G A D
Шах и мат - Генрих рад!
E G F D
Он - король на белом коне.
E G A D
 
Вступление - 2 такта E
Затем - 4 раза: A F#m D E
A E D
Терпеньем я не наделен, и мир все лучше, да, мир все лучше
F#m Hm F#m Hm
Я удивлен, я удивлен.
A E D
Судьба, в которую влюблен, дает мне право смеяться даже
 
 
Соло на басу вначале:
D-|----2---2-----2-2-2-0-2-2-0-------2-----
A----------------------2-------
E-|0-0---0---0-0---------------0-4---------
Вступление:
H---------------------0--------
G-|2---------------------------2----1------
D-|--4-2---2--4-2------------2--------4-2--
 
Вступление: Е5 (D5/E5 D5/E5) E5
А5 F#5 D5 E5 [x4]
A5 E5 D5
Терпеньем я не наделен и мне все лучше, да мне все лучше
F#5 C#5 D5 C#5 F#5 С#5 D5 C#5
Я удивлен, я удивлен
A5 E5 D5
Судьба в которую влюблен дает мне право, смеяться даже
Am
Не надо меня утешать,
Это мне не поможет.
Любимая девушка очень
Жестоко обидела.
Dm
Стыдливое чувство меня
F
 
Bass
1I-----------------------------
2I-----------------------------
3I----------------------------- 2 раза!
4I-----------------------------
5I-0-0----------0-0------------
6I-----3-0-3-0------3-0--------
1I----------------------------
 
D G
Как-то появился в городе монах,
Em A
Он к прохожим обратился -
D G
"Я, похоже, знаю, что у вас в мечтах,
Em A
Для этого я с гор спустился.
 
Em
На мне есть грех, на всех есть грех,
C Am
Но всех страшнее грех на тех,
Em
Что без боязни судят нас,
C Am
Когда придет твой смертный час,
 
 
Hm Em
Мы прощались на пароме,
Hm
Прохрипел мне ямщик:
"У погоста в дряхлом доме
дед живет - гробовщик.
G F#m
Год назад его нечистый дух попутал,
 
Hm B
В хронике моей есть последняя глава,
D A
К сожалению в ней обрываются слова,
За последний год из рыбацких деревень
Сгинул весь народ в тот туман Что каждый день,
G Hm
С моря заходил, в глубь материка
 
Проигрыш: 1раз. - Hm Gsus2 F#m/A
2раз. - Hm G F#m
Hm Gm
В хронике моей есть последняя глава,
D A F#
К сожалению, в ней обрываются слова.
Hm A#
За последний год из рыбацких деревень
 
Два вора, лихо скрывшись от погони,
Делить украденное золото решили.
На старом кладбище вечернею порою
Уселись рядом на заброшенной могиле.
И вроде поровну досталось им богатство,
Но вот беда - последняя монета.
Один кричит: "Она моя - я лучше дрался!"
"Да что б ты делал, друг, без моего совета?!"
 
Примечание:
x - глушение (Palm muted), Гитара 1, Гитара 2 - Distortion
==========
Куплет I
==========
Два вора лихо скрывшись от погони
Делить украденное золото решили
На старом кладбище вечернею порою
 
Музыка - Михаил Горшенев, слова - Андрей Князев.
H G#m A# D#m
Два друга шли домой
Дорогой ночной,
Вдруг разбойники из леса
Вышли целою толпой.
H F# A# D#m
Один парень зарыдал,
 
 
Am F E Am
Два друга шли домой
Дорогой ночной,
Вдруг разбойники из лесу
Вышли целою толпой.
Hm G F# Hm
Один парень зарыдал,
На колени упал:
 
1|--------3-2-0---------------
2|------1-------4-4-4-5-------
3|--2-4-----------------------
4|--------------------------0-
5|----------------------2-4---
Em Am D Hm
В ночи ветер завыл и дождь сильный был
Am Em H Em
 
Hm Em A F#m
В ночи ветер завыл и дождь сильный лил
Hm Em AA F#m
В дверь постучали я тут-же открыл
А там на улице был монах промокший
И весь продрогший его я впустил
Я его усадил за стол и он молчал
Я ему чаю налил, но снова кто-то постучал:
 
Вступление: H | H | G | F#m > 4 раза
H G F#m
Кровь, погони, страсть...
Жить - любой ценою,
Я не смел упасть,
Ты была со мною.
Проигрыш: H | H | G | F#m > 4 раза
H G F#m
 
C G F G
Тощий месяц по небу плывет.
C G F G
Дед в огороде самогонку пьет.
C Am F G
Мысли гложат его,
C Am F G
Вспомнил он сынка своего.
 
 
Первый куплет:
C5 A5 F5 G5 G
P.M-----------------------------(Приглушка)
1)----------------------------------3-(0)--|
2)----------------------------------3-(0)--|
3)----------------------------------4------|
4)-5-5-5-5--------------------------5------|
5)-3-3-3-3-7-7-7-7-3-3-3-3-5-5-5-5--5------|
 
F#m A D E
Тощий месяц по небу плывет,
F#m A D E
Дед в огороде самогонку пьет,
A F#m D E
Мысли гложут его:
A F#m D E
Вспомнил он сынка своего
 
 
G C F G
С прекрасной дамой граф разгуливал по парку
C F G
Во мгле виднелись очертания замка
C F G
Где у ворот собака грустно завывала,
F G
Девица графа очень нежно обнимала.
 
 
Играется следующим простеньким перебором:
10-0------------------------------------------------------
2|---------0-----0----------------------------------------------------
3|-------0---------0--------------------------------------------------
4---------------------------------------------------------
5|------0-------------------------------------------------------------
6---------------------------------------------------------
Am
 
C Am
С прекрасной дамой граф разгуливал по парку
F G
Во мгле виднелись очертания замка
C Am
Где у ворот собака грустно завывала,
F G
Девица графа очень нежно обнимала.
 
Am
Близится гулянка к завершенью,
Dm Am E
Закончен пир за праздничным столом.
Am
Сидит старик в неведомом томленье
Dm Am E
И смотрит, как светает за окном.
 
C#m G#m
Как же Джокер ты хитер.
A G#m
Ты удачи приговор.
C#m G#m
Брошен вызов игрокам
A F#
Главным моим врагам!
 
Em Hm
Наш бренный мир задуман им,
Am D H
Как царство света и покоя.
Em Hm
Наш мир и должен быть таким,
Am D H
Но где вы видели такое?
 
Этот город завёрнут, как в саван, в туман,
И царит в нём безумье, порок и обман.
Город мрачных трущоб, весь изглоданный злом,
По ночам его мгла накрывает крылом...
И в глазницы домов смотрит ночь, словно ворон,
Этот город безукоризненно чёрен.
Только толпы теней, только Темзы свинец —
Этот город страшней, чем оживший мертвец.
 
Hm F#m
Обо мне позабыли боги,
G A
Путник, сбившийся с дороги.
Заведений ночных пороги
Истоптали мои ноги.
F# Hm
Там ее и встретил,
 
Бас в куплете, от начала:
A G# C#m A
G||-------------------------|--------------------------|--------4-----------------|
D||-------------------------|--------6--4--------4--6--|-----------6--------------|
A||----------------4--6--7--|-----3--------4--7--------|--4--7-----------4--6--7--|
E||----4--7--4--5-----------|--4-----------------------|--------------5-----------|
A G# C#m
В начале идет Басс
1------------------------------------------------------------------------------
2------------------------------------------------------------------------------
3---------------------------------------------4--------------------------------
4---------------------6--4--------4--6-----6----6--------------------6--4------
5---0--4--6--7-----6--------4--7--------4----------0--4--6--7-----6---------4--
6---------------4----------------------------------
 
Эта песня играется в малую долю.
Встуление:
4-----3-------------4-5-7-----2-3------
5-1-5---5---4-5-7-5-------5-5----------
6---------6----------------------------
такой же бас и в куплетах
На слове грохочет такой бас идет -0-3-0-
Аккорды аграются на барэ
 
A A# A
Грохочет гром,
Dm
Сверкает молния в ночи,
A# A Dm
А на холме стоит безумец и кричит:
A# A
"Сейчас поймаю тебя в сумку,
 
Вступление: Dm Gm Am - 2 раза
Dm Gm Am
Ночь за окном, хлещет дождь и молнии сверкают
Лужи кругом - ни проехать, ни пройти.
Милая, я вас совсем не понимаю,
Ну почему так стремитесь вы уйти?
Dm Gm A
Прошу вас, о, Екатерина, останьтесь этой ночью у меня
 
Am 555775
G 334553
C 344433
Dm 567755
H 778997
E 001220
Am G Am
За столом сидели, мужики и ели -
Am Em C G F G Am
Скрипели старые колеса у телеги,
Am Em C G F G Am
Кобыла шлепала копытом по грязи.
Dm Am Dm Am
Уставший дед курил и думал о ночлеге,
Dm E
Кобыле молвил он: "Быстрей в село вези!"
 
 
Am C F Am
Скрипели старые колеса у телеги,
Am C F Am
Кобыла шлепала копытом по грязи.
Dm Am Dm E
Уставший дед курил и думал о ночлеге.
Dm Am E7 E5 E5
Кобыле молвил он: "Быстрей всего вези!"
 
 
Em G F E
Скрип двери, старые колеса у телеги,
Кобыла шлепала копытом по грязи,
G Dm G D5
Уставший дед курил и думал о ночлеге,
G A5
Кобыле молвил он: "Быстрей в село беги!"
A5 A#5 A5 A# A
 
- Признаюсь, братцы, вам, я дедушку любил.
- Так, он же бил тебя?
- Клянусь, за дело бил.
- Он хоть и строгий был, зато меня учил.
Все то что знаю я, от деда получил.
Ну а когда хотелось баловаться мне,
Так тут святое врезать палкой по спине.
Не стало деда, и мне грустно от того,
 
 
На акустической гитаре, для упрощения игры, можно заменить аккорды следующим образом:
A5 H5 C5 G5 F5 E5 D5
| | | | | | |
Am H C G F E Dm
Признаюсь, братцы, вам, я дедушку любил.
Так, он же бил тебя? Клянусь, за дело бил.
Он хоть и строгий был, зато меня учил.
Все то что знаю я, от деда получил.
 
- Признаюсь, братцы, вам, я дедушку любил.
- Так, он же бил тебя?
- Клянусь, за дело бил.
- Он хоть и строгий был, зато меня учил.
Все то что знаю я, от деда получил.
Ну а когда хотелось баловаться мне,
Так тут святое врезать палкой по спине.
Не стало деда, и мне грустно от того,
 
 
Признаюсь, братцы, вам, я дедушку любил.
Так, он же бил тебя? Клянусь, за дело бил.
Он хоть и строгий был, зато меня учил.
Все то что знаю я, от деда получил.
Ну а когда хотелось баловаться мне,
Так тут святое врезать палкой по спине.
Не стало деда, и мне грустно от того,
Что не хватает подзатыльника его.
 
 
Вступление:
Dm
Gm Am
Наш детский хор ввели во двор
Dm
Лязгнул ружейный затвор
Gm Am
Командой пли как вы могли
 
 
Вступление:
Dm
e|-------------1--1h3p1---------|---3/5--0--0--0h1p0-------|
H|----------3------------3------|---------------------3----|
G|-------2------------------2---|--------------------------|
D|----0-------------------------|--------------------------|
A|------------------------------|--------------------------|
E|------------------------------|--------------------------|
F#m E F#m E
Подсел за столик к пьяному солдату
A C#
Громила из блатного кабака.
F#m E F#m E
"Ну что солдатик, покажи гранату!
A C#
Иль может быть сыграем в дурака?
 
 
D A
Суров запрет сердитого отца,
Em G
Он не велит ей замуж выходить.
D A
Но перед нею образ молодца,
Em G
Она его не может разлюбить.
 
C#m5(IV) C#m5 C#m5 E5(VII) | x 4
C#m5 C#m5 C#m5 E5
Где справедливость - уж который год,
Жители предгорья, очень мирный народ,
Страдали от того, что старый вампир
Таскал их свиней и кровь у них пил.
A(V) F#m A F#m A|--slide---|
Послали к вампиру Степана-детину. Bass: E|--2>12----|
D:-------4---------5-----------4-----------5------------
A:----5----5----5----5-----5-----5----5-----5----------
E:--3---------3----------3-----------3-------------------
D:-------4---------0-----------4----------0------------
A:----2----2----2----2-----2-----2----2----2----------
E:--0---------0----------0-----------0-------------------
Тихо шумит листва.
Ночь, будет опять гроза.
 
G A# D# D C
Здравствуйте, я принимаю звонки,
G A# D# D F
Я оператор, они все мои.
Я не понимаю, ничего не знаю,
Я рулю делами и всем помогаю.
C# D
Телефоны все трезвонят,
 
Сокращения и обозначения, использовавшиеся при подборе песни:
> - глиссандо ("подъезд")
f - форшлаг
Hm Hm F#m Em F#
Проигрыш: 1-я -------------------------------------------------------------------2-------
2-я ---3-2-------3-2------3-2---------2----------------------------2-----2---2-
3-я -4-----2-4---4-2----4-----4----2-----------0---------0-------3---3-----3---
Hm [...]
Как-то некто на базар пришел,
К самой первой лавке подошел.
"Эй, продавец, ну-ка думай быстрей,
Какую выбрать одежду мне в лавке твоей,
Я по характеру злой, мое стремление - власть,
Во мне горячая кровь,
Во мне свирепая страсть.
Вступление, можно и на окустике:
Hm
E|-7-7---------10-10-| repeat
H|-----8-8-7-7-------|
G--------|
D--------|
A--------|
E--------|
 
Вступление:
F#m A D E > 2 раза
Hm D G A > 2 раза
F#m A F#m A
Казимир в горах идола нашел,
Взял его на плечи, улыбнулся и пошел.
D
В этот же момент, черт их подери,
 
Застыли каменные стены подземелья,
Слышны повсюду крики ужаса и плач,
Шептал себе под нос мужик, дрожа с похмелья:
"В моем лице теперь у бога есть палач!"
Седой монах с крестом и в черном одеяньи,
Спустившись с факелом в темницу произнес:
"Все, кто здесь есть, должны испытывать страданья!
Я слышу бога – он желает ваших слез!"
 
C# F# H C#
Завел я девушку в сарай,
И был там очень тусклый свет.
Я ей хотел, хотел показать.
Свой дорогой, свой инструмент.
G# F# G#
Вот это, чем я дорожу!
Я ей сейчас покажу!
 
Dm
Ноги тащат по земле
Тыщу лет во мгле...
Dm Cm D# Dm
Глазами зверя вижу мир, путь мой вечен...
Cm D# Dm
Я класный парень, я вампир. Бесконечен...
F G
 
Hm
Его вели на эшафот,
Он, что есть мочи, заорал:
"Да помогите мне, народ!
Ведь я, клянусь, не убивал!"
Chorus:
F#m H C#
"Эй, вы! Я же хотел добра!
 
Порою возвращает меня память
В тот страшный летний день,
Когда, бредя вдоль речки безымянной,
Наткнулся я на труп несчастной женщины.
Она лежала, запрокинув свою голову,
На шее рану я увидел безобразную.
Откуда здесь она, босая, полуголая,
Какой-то грязью непонятной вся измазана.
 
 
Аккорды: Am7 – 010200; H7 – 202120; G7 – 334353; Gsus4 – 335533.
(-Em-Am7-Em-Am-) – 2 раза
(-Em-Am7-Am-D--Em-Am-D-Em-) – 2 раза
Em Am H7
Очнулся в темном подземелье он.
Em C D
За дверью вдруг послышались шаги.
G Em C D
 
 
Am
В провинциальном городке
F
Был праздник музыка звучала
Dm
Но вот в ликующий толпе
E
Возник зловеший лик бродяги
 
verse1:
F Am
Улыбнулась незнакомка
G Em
Улыбнулся я в ответ
F Am
Глупо было бы мне этот
G Em
 
Вступление: G Hm G Hm G Hm G Hm
G Hm
До судорог, до бреда, до рыдания,
G Hm
До порванных от напряжения жил
G Hm
Я сохранял свои воспоминания,
G Hm
 
Вступление:
D:----------4-------------7---6----
A:----------4-------------7---6----
E:--0-2-0--2-----0-2-0--5---4----
F#m
Все надежды тают,
Hm A
В бездну путь ведет;
Вступление: Ab | Bm > 4 раза
Ab Bm
Во мрак погружен
Туманный Альбион
В долине покой,
Луна над рекой.
Но в полночь опять
Вдруг стала звучать
 
E-------------------------------|играется 2 раза
B-------------------------------|
G-------------------------------|
D-----0-------------------------|
A---2---2--1--------------------|
E|--0-0-0--3-5------------2t3-3-3-3-3-3-----|
E----------------------------------------------------|играется 4 раза
B----------------------------------------------------|
 
E Am
Ой, полна, полна коробушка,
E Am
Есть и ситцы и парча.
Dm Am
Пожалей, моя зазнобушка,
E Am
Молодецкого плеча!
 
 
Вступление и куплет
D:--2--2---5---7---2---------2-2----5---8-----------
A:--2--2---5---7---2---------2-2----5---8-----------
E:--0--0---3---5---0---3-2---0-0----3---6----3-2---
D:--2--2---5---7---2---------2-2----5---7-8-7---5--2-2--
A:--2--2---5---7---2---------2-2----5---7-8-7---5--2-2--
E:--0--0---3---5---0---3-2---0-0----3---5-6-5---3--0-0--
- Прием! Я - гром, -
A
Много дней грустил король,
G
Не знал народ, что за беда!
Hm
И кто-то во дворец привел
D
Смешного карлика-шута.
 
Много дней грустил король,
G
Не знал народ, что за беда!
Bm
И кто-то во дворец привел
D
Смешного карлика-шута.
Карлик прыгал и кричал,
 
 
A F#m D
Опять в деревне этот парень появился,
Последний месяц глаз мозолит без конца.
A Hm G
Вы поглядите, как он снова нарядился!
F# Hm
Спасайте девушки невинные сердца!
Hm
 
 
D A F#m D
Опять в деревне этот парень появился,
A F#m D
Последний месяц глаз мозолит без конца.
A Hm G
Вы поглядите, как он снова нарядился!
F# Hm
Спасайте девушки невинные сердца!
 
Intro:
E|----5-5p-----------------5-5---|
B|----5----5pm-----5pm-----5---5-|
G|----5--------5pm---------5-----|
D|----7--------------------7-----|
A|----7--------------------7-----|
E|-5p-5-----------------5p-5-----|
Am
Am
Ах, за, что меня бросили в подвал?
Am
Разве ж это я денежки украл?
Dm
Я ведь не такой, я ведь не злодей,
Am
Никогда не крал деньги у людей.
 
 
Am
Ах, за что меня бросили в подвал,
Am
Разве ж это я денежки украл
Dm
Я ведь не такой я ведь не злодей
E
Никогда не крал деньги у людей
 
Am G
Ах, за, что меня бросили в подвал?
Am G
Разве ж это я денежки украл?
Dm G
Я ведь не такой, я ведь не злодей,
Am G
Никогда не крал деньги у людей.
 
 
Intro: A5, G5, E5 |
A5, C5, E5, A5 |
x2
Можно и по квинтам, можно и без них
(одно но: если по квинтам, то второй аккорд - G5 иначе C)
Am C E
По селу промчался слух,
Am C E Am
 
G)-----------------2---------------- D)------2-----20--2-4242-2220242---- A)-0-3-5-00035----------------(2)--- А аккордов к песне и так уже до фига........
Intro - F# F# A H (2 раза)
F# A H F# A H
За то, что в погреб к барину ходил, и за то, что брагу красть у барина любил,
F# A H F# A H
И за то, что всю ее приговорил Кузьма, крестьянский сын, наказан был.
F# A H E
ПРИПЕВ: Кружка, две - и Кузя рад, а на барина чихать, он и так
 
F# A H
За то что в погреб к барину ходил
F# H E
И за то что брагу красть у барина любил
И за то что всю ее приговорил
Кузьма крестьянский сын наказан был
Припев:
F# A
 
 
Вступление: F# /A /H
F# /H /A
Куплет:
F# A H
За то что в погреб к барину ходил
F# A H
И за то что брагу красть у барина любил
F# A H
 
 
intro: Hm Cm F G
1)
Hm E
Темный,мрачный коридор
F G
Я на цыпочках,как вор
Cm Dm
Пробираюсь,чуть дыша
 
Проигрыш: Dm | Gm7 | A
e|-----------------------------------------------------
H|-----------------------------------------------------
G|-----------------------------------------------------
D|------------------------8-7-7-3-3p-8-7-2-------------
A|-8-7-7-5-5-8-7-5p-5-7-8------------------------------
E|-----------------------------------------------------
Dm F Gm A
 
Dm Gm A
1|----------------------------6--5-5-------6-5------|
2|-6--5-5--3-3--6--5-3--3-5-6---------6-6-------5---|
3|--------------------------------------------------|
4|--------------------------------------------------|
5|--------------------------------------------------|
6|--------------------------------------------------|
Dm F Gm A
 
Вступление: Dm Gm A
Dm F
Темный, мрачный коридор,
G A
Я на цыпочках как вор
Dm F G A
Пробираюсь, чуть дыша, чтобы не спугнуть
Dm F G A
 
 
D G A D
В кукольный театр всех карлик приглашал:
"Кто вечером придет, тот со смеху умрет!
Будет вам очень, очень хорошо,
Деньги не желей, богатей!
D A D G A D
Вечер смеха и страстей!"
D G A D
 
Am F G
Измученный дорогой, я выбился из сил.
Am F G
И в доме лесника я ночлега попросил.
С улыбкой добродушной он меня в пустил.
Am
И жестом дружелюбным на ужин пригласил.
Chorus:
 
ЛЕСНИК:
Вступление: 2 раза
E---------------------3-1---3-1--33—11—00--------------
H---1-3-5---1-3-5---1------1-------------33----13---13-
G—2-------2--------2------2------------------04---04---
D------------------------------------------------------
A------------------------------------------------------
E------------------------------------------------------
 
Hm G A
Замученный дорогой я выбился из сил
Hm G A
И в доме лесника я ночлега попросил
Hm G A
С улыбкой добродушной старик меня впустил
Hm G A
И жестом дружелюбным на ужин пригласил эй!
 
 
Аккорд N берется как Hm на 8 ладу. (Истинное название я не знаю)
Intro1 (В две гитары )
Cm Gm
--------------------------66-------66---
------66-99-----66-99-------99-------99-
-55-88-----55-88-----55-88----55-88-----
N A#
-66--------66-----------------------------
 
Вступление:
Riff1
Две гитары, одна без дисторшена аккордами, другая приглушенное соло с дисторшеном
Am F
---------------------------------------------------1)
---------------------------------------------------
---------------------------------------------------
-------------------------------55-33-------55-33---
 
Альбом: Ели мясо мужики
Обозначения: pm-----| Глушение кистью правой руки в районе струнодержателя
dist on| Включить эффект "ДИСТОРШН"
dist off| Выключить эффект "ДИСТОРШН"
harm---| Флажолет
gliss--| Глиссандо - провести ребром медиатора по струнам
Строй гитар: Стандартный(Ми)
Вступление:
 
Am Dm G F A5 D5 G5 F5 E5
|-5-||-5-||-3-||-1-| |---||---||---||---||---|
|-5-||-6-||-3-||-1-| |---||---||---||---||---|
|-5-||-7-||-4-||-2-| |---||-7-||---||---||-9-|
|-7-||-7-||-5-||-3-| |-7-||-7-||-5-||-3-||-9-|
|-7-||-5-||-5-||-3-| |-7-||-5-||-5-||-3-||-7-|
|-5-||-5-||-3-||-1-| |-5-||---||-3-||-1-||---|
Вступлени
 
Intro:(p.m. все время)
(Am) (F)
e:-------------0-0---0-0-|---------3-3-1-1-|---------3-3-1-1-|
b:-----1-1-3-3-----|-----1-1-3-3-----|-----1-1---------|-----1-1---------|
g:-2-2-------------|-2-2-------------|-2-2-------------|-2-2-------------|
d:-----------------------------------|
A:-----------------------------------|
E:-----------------------------------|
 
Вступление: E F# A H
F#5 H5 E5
Никому никогда не стремился зла я причинять,
F#5
Причинять.
Но тот не прав, ох, не прав, кто свободу у меня хотел отнять,
Отнять!
Проигрыш: A5 G#5 F#5
 
A D H E
В ночном лесу костер горел,
C7# F#m D E
А у костра усталый дедушка сидел ,
A D D A
Трогал усы, трубку курил,
H E A
О чем-то тихо сам с собою говорил.
 
♪ |Gm|D#|Bb|F|Gm|
♫|Gm|D#|A#|F|
Я не знаю что мне делать c этою бедой |Gm|F|D#|
У меня на cвeтe былo вcё, дa нe тo |A#|D#|
Гдe мoя cyдьбa - мнe нeвeдoмo |F|Gm|
Пycть вce бyдeт кaк cyждeнo, нo... |F|Gm|F|
Я нe знaю чтo мнe дeлaть c этoю бeдoй
У нee нeбecный зaпax, цвeт зoлoтoй
 
Em Am
Он печален был, он ее любил,
C D
Но во всем ему отказ, что б он не попрасил!
Em Am
С горя он тогда пропеллер смастерил,
C D
Как получилось, сам не понял!
 
Intro:
Em G5 A5 E5 G5 A5
1-----------------------------
2-----------------------------
3-----------------------------
Solo 1:
E5 G5 A5
2---------------------------------------------8------------7h8p7-
 
Dm7 Bmaj7 A7 Dm7
Финал ее танца запомнится всем,
Bmaj7 Gm7 Em7 A7
Принесший нам много ненужных проблем.
Поклонников лучших лишилась она -
Арест после пятой бутылки вина.
Припев:
Dsus2 Bmaj7 Gm A
 
 
Ловетт:
E
Просто: маленький остров,
E A F#m
В свете заката розов,
F#m
В море безбрежном
F#m A H
 
Hm G A Hm
Мой мир огромен, а я так скромен
Hm G A F#m
Вся жизнь - спектакль, я в ней актер
D G Em A
Актер, лицедей, добряк и злодей
D G Em A
Не ради людей, а ради искусства
 
G B
На руках тебя я к машине подношу
D C Em
И сажаю в кресло рядом с собой.
Ты теперь молчишь, ты мне нравишься такой,
И навеки обрела ты покой.
Em C D
Ты теперь моя, навсегда моя.
 
 
(концертный вариант)
(Все аккорды на баррэ, С(VIII), B(VI), звучит хорошо только так)
F G#
На руках тебя я к машине подношу
B G# F
И сажаю в кресло рядом с собой.
Ты теперь молчишь, ты мне нравишься такой,
И навеки обрела ты покой.
 
 
1-й куплет:
Am C
На руках тебя я к машине подношу
D C A
И сажаю в кресло рядом с собой.
Am C
Ты теперь молчишь, ты мне нравишся такой,
D C A
 
Вступление: Am | C | Dm | E7 > 4 раза
Am C Dm E7
Знают зеркала, в чем моя беда.
Am C Dm E7
Не смотрю я в них больше никогда.
A F#m A F#m
Тугая маска - спасение мое,
A F#m A F#m
 
C#m E G#
Вечером к столу мастер пригласил
C#m E G#
Верного слугу и его спросил
"Сколько раз ты встречая моих гостей
никого никогда за дверь не провожал
и ты поймешь теперь что я в тайне держал"
В те дни когда я в настроении бываю
 
Вступление:
Скрипка:
E|--------------------------------------------------------|
H|--9--7-9-10~~-----7-9~~-7-9-10~-------------------------|
G|----------------9---------------------------------------|
D|--------------------------------------------------------|
A|--------------------------------------------------------|
E|--------------------------------------------------------|
 
подбор - Мартин Иден
Куплет - E/C/Am/D - Am/F/C/E
Припев - Am/F/C/E
E C Am D
Вечером к столу Мастер пригласил
E C Am D
Верного слугу и его спросил :
Am F
 
 
Em C G D
Вечером к столу мастер пригласил
Верного слугу и его спросил -
"Сколько раз ты, встречая моих гостей,
никого никогда за дверь не провожал?
И ты поймешь теперь, что я в тайне держал.
Em C G D
В те дни, когда я в настроении бываю,
 
 
C#m A E Ab
вечером к столу мастер пригласил
верного слугу и его спросил -
"Сколько раз ты, встречая моих гостей,
никого никогда за дверь не провожал?
И ты поймТшь теперь, что я в тайне держал.
Припев:
C#m A E Ab
 
 
Am F G
Моё имя известно
Am F G
И меня повсеместно
Am F G
Обречённо бояться.
Am F G
Меня тянет смеяться
 
E7
Новая эпоха - век машин,
Он достиг невиданных вершин!
Hm G A
Технический прогресс...
 
E7
Ну-ка, ну-ка, что это за штука?
 
муз. Горшенев М. / сл. Князев А., Горшенев М.
Вступление: Fmaj | Em7 } 4 раза
Em Hm C G
Я жив, покуда я верю в чудо,
Am Em F# H
Но должен буду я умереть.
Em Hm С G
Мне очень грустно, что в сердце пусто,
 
Intro: F G x4
Em Hm Am G
Я жив, покуда я верю в чудо,
Am Em F# H7
Но должен буду я умереть.
Мне очень грустно, что в сердце пусто,
Все мои чувства забрал медведь.
A# Am A# Am
 
Am G Em F
Ослепший старый маг ночью по лесу бродил
на кладбище разлил он волшебный элексир
И лишь проговорил : "Что ж ты старый натворил!"
Гитара:
4)--7-9-7-9-7-9--12-12--
5)--5-7-5-7-5-7--10-10--
6)--0-0-0-0-0-0---------
Вступление, первый и последний куплет:
Hm(II) A(V) F#m(II) G(III)
E)---------|---------|---------|---------|
B)------3--|---------|---------|-----3---|
G)--4--4-4-|------6--|---2-----|---4--4--|
D)-4--4----|--7--7-7-|--4------|--5----5-|
A)2--2-----|-7--7----|-4-------|-5-------|
E)---------|5--5-----|2--------|3--------|
 
C Gm Dm Am
(играется небыстрым боем с глушением)
C Gm
Жизнь была хороша,
Dm Am
Сводная разбоничья душа.
А теперь точно вряд
Валяются бандиты будто спят.
 
F#m
Жизнь была хороша
D H
Свободная разбойничья душа.
А теперь, точно в ряд,
Валяются бандиты, будто спят.
Гарри нам удружил:
В еду, мерзавец, яду подложил!
 
 
Am G Am G
Мой характер был не прост, в силу ум ушел, и рост
Am G G F
Но такой уж был мой нрав, драться с теми, кто не прав
Am G
Я хотел быть крутым и возненавидеть
Am G
Слабости, что в себе иногда я видел
 
 
Intro:Em,C,Em,D,Em,C,D,H7
Em C
Мой характер был не прост
Em D
В силу, ум, ушел и рост
Em C
Но такой уж был мой нрав
D H7
 
 
Am
Злился подо мной мотоцикл мой.
G Am G
Ночью он мчал меня домой.
Am
Глядя на поля, не заметил я,
G Am G
Что кто-то чешет прямо на меня
 
 
C#m
Злился подо мной мотоцикл мой.
H C#m H
Ночью он мчал меня домой.
C#m
Глядя на поля, не заметил я,
H C#m H
Что кто-то чешет прямо на меня
 
 
G Em
Помнят с горечью древляне, хоть прошло немало лет,
C D
О романтике Демьяне, чей лежит в лесу скелет.
Жаль, никто ему не верит, хоть захватывало дух
От его былин о фее - повелительнице мух.
B B7 B? Bm? A
К этой фее был романтик полон страсти и любви,
 
G F
Хватит притворяться живым,
Am G
Когда все вокруг мертвы,
C
Когда все мертвы.
G F
Умерли давно те, кого я любил,
 
«На Краю» (Последняя Ария Тодда)
 
®|Am|Hm|Em|Em/D|
®|Am|Hm|Em|C|
®|Am|Hm|Em|Em/D|
®|Am|Hm|C|Am|Em|
Хватит притворяться живым, |G|F|
Когда все вокруг мертвы, |Am|Caug|
 
Intro:
1---------------------------------------|
2---------------------------------------|
3---------------------------------------|
4---2-2----5-5----7-7----9-9-7-9--------|
5---2-2----5-5----7-7----9-9-7-9--------|
6---0-0----3-3----5-5----7-7-5-7--------|
E A Hm
[ Em Cm Em *G# x4 ]
 
Em F#
Я в этой жизни не боялся ничего,
Hm G F#
Но там мне жутко, жутко...
Hm C D F#
А если вдруг там просто нету ничего,
 
Вступление:Am Dm Em
Bass:
p-pause
1-|
2-|
3|-----5-7p-5-|
4|-5-5--------|
Am
C#m
Скрыть печаль свою стараясь,
Палач нахмурил лоб сердито,
F#m
Но трактирщик понял:
C#m
Сердце палача разбито
"Не привык таким я
 
 
Em
Скрыть печаль свою стараясь,
Палач нахмурил лоб сердито,
Am
Но трактирщик понял:
Em H
"Сердце палача разбито..."
"Не привык таким я здесь
 
 
C#m
Скрыть печаль свою стараясь,
Палач нахмурил лоб сердито,
F#m
Но трактирщик понял:
C#m
Сердце палача разбито
"Не привык таким я
 
Em
Скрыть печаль свою стараясь,
Палач нахмурил лоб сердито.
Am
Но трактирщик понял -
Сердце палача разбито.
"Не привык таким я
здесь тебя, приятель, видеть!
 
 
Вступление:Em Am Em
Em
Скрыть печаль свою стараясь,
Em
Палач нахмурил лоб сердито.
Am
Но трактирщик понял -
Em
 
 
*F#m
Выбора мне судья
A
Не оставил.
E_______________H
Над собой эксперимент
*F#m
В ту роковую я
 
 
Ты говоришь, я - демон?
Так и есть.
Со мной не видать тебе удачи!
Но так как мое дело - злая месть,
Для демона - не может быть иначе.
Am5
Чем я заслужил судьбу несчастного изгоя?
F5
 
Ты говоришь, я - демон?
Так и есть.
Со мной не видать тебе удачи!
Но так как мое дело - злая месть,
Для демона - не может быть иначе.
A5 (Am)
Чем я заслужил судьбу несчастного изгоя?
F5 (F)
 
 
G Em
Как можно призрачной мечтою греться,
G Hm
И спать спокойно, глубоко дыша,
G Em
Когда от боли в клочья рвется сердце,
G Hm7
И жаждой мести сожжена душа?
 
D
Пирожки от Ловетт -
A
Это знает весь Лондон.
Hm G
Кто еще не бывал
A D
В заведении модном?
 
D - везде играется на барэ (557775)
Вообще все аккорды лучше играть на барэ, кроме Em и F.
Вступление :
Hm D C#
E-----------------------------------1 |
B-----------------------------------2 | Играется
G-----------------------------------3 | 2
D------------------0-0--------------4 | раза
 
Hm Em A
Вечерело солнце, опускалось,
Hm Em A
Вячеслав заснул на гамаке,
Hm Em A
Одолела мальчика усталость,
Hm Em A
Кровь текла по раненой щеке.
 
 
Hm
Вечерело, солнце опускалось,
Вячеслав заснул на гамаке.
Одолела мальчика усталость,
G
Кровь текла по раненой щеке...
Hm A
Вечерело, солнце опускалось,
 
Intro: Am C D [x2]
Am C Em
1|---0-0-0-0---0-0-0---0-0-0---|
2|---1-1-1-1---1-1-1---1-1-0---|
3|---2-2-0-2---0-0-2---0-0-0---|
4|---2-2-0-2---0-0-2---2-2-2---| [x2]
5|---0-0-0-0---0-0-0---3-3-2---|
6----------0-0-0---|
 
Для акустического варианта предлагается заменить квинты соответствующими аккордами:
E5 G5 A5 H5 C5 D5
| | | | | |
E(m) G A H C D
Вступление: (E5) (G5) (A5)
бас: E)-0-0-0-0-0-0-0-0-3-3-3-5---5-5-5-| [x2]
E5 D5 E5 D5 E5 G5 F#5
3)-9-9-7-9----7-9-----12-12-11------|
Вступление:D G Hm A
D G
Один молодой отец в хорошее раннее утро
Hm A Проигрыш не уловил, вроде: Hm A G
Повел своих детей в парк на прогулку.
Увидели они: печальный продавец
Маски продавал в глухом переулке
D G Hm A
 
1.Вступление
4:---------------
5:--555-...-555-- сколько играется не считал,а затем
6:---------------
pm...................
Гитара 1(distortion):каждая нота - 16 раз
4:-----------------------------------------------------------------------
5:--5555555555555555-3333333333333333-2222222222222222-0000000000000000--
 
Am
Лодка скрипит возле причала
G
Лунная ночь - тревог начало.
Em F
Мрачно стою в воду смотрю.
Нет моего в ней отраженья,
Есть только горечь пораженья.
 
A5
Темнело за окном, наступала ночь
За кухонным столом сидели мужики
F5
весь вечер непрерывно бил по крыше дождь
D5
И гром гремел ужасно где-то у реки
Am
 
Am
Темнело за окном,и наступала ночь,
За кухонным столом сидели мужики,
G
Весь вечер беспрерывно лил по крыше дождь,
Dm
И гром гремел ужасно где-то у реки.
Am G Dm
 
 
Пишу по памяти, гитары под рукой нет, так что...;)))
C#5 x466xx
C# x4666x/x46664
A5 577xxx
A 5776xx/577655
F#5 244xxx
F#m 2442xx/244222
G# 4665xx/466544
Вступление:
E5 F#5 G5 C5 H5 D#5
E5 F#5 G5 D#5 D#5 C5 C5
! Если с аккордом не указана цифра 5, значит
играется не аккорд а одна лишь эта нота.
Именно так играется в оригинале (но можно играть
и этот аккорд под эту ноту т.е Е - Е5
правда в некоторых местах это лучше не делать
 
Bbm
В этот выходной
Не умрет никто,
Так как сверстан новый номер газет.
Bb Bbm
И не будет фраз,
Am
И не будет гильз,
 
 
Fm Cm Ab Fm
В лесной глуши, во тьме, безлунной ночью
Fm Cm Ab Cm
Скитался парень, волновался, спички жег.
И тишиной зловещей лес ему пророчил,
Его судьбы весьма безрадостный итог.
И каждый куст свирепым хищником казался.
Скрипели ветки у него над головой.
 
На мой взляд этот вариант наиболее
похож на оригинал песни .
Для большего правдаподобия можно повыпендриваться
на аккордах Dm и Am - играя Dm-Dsus4-Dsus2-Dm
и Am-Amsus2-Am .
И огромное спасибо ВСЕМ тем ребятам , чей труд лег
в основу коррекции этой песни
Dm Gm A
 
 
Dm Gm A
В лесной глуши во тьме безлунной ночью
Dm G Dm G
Скитался парень, волновался спички жег
Dm Gm A
И тишиной зловещей лес ему пророчил
Dm G Dm G
Его судьбы весьма безрадостный итог
 
Dm Gm Am
В лесной глуши во тьме безлунной очень скитался
Dm Gm Dm Gm Am
Парень волновался спички жег
Dm Gm Am
И тишиной зловещей лес ему пророчил
Dm Gm Dm Gm Am
Его судьбы весьма безрадостный долг
 
 
ТОДД:
Вот наконец-то прорвалась
С этой первой кровью боль моя…
Боль моя… Боль моя… Боль моя…
Но кто сказал,
Что Он не сможет мне простить?
Он слишком слаб,
Он сам не в силах отомстить.
 
Intro:C F C G - x2
Verse 1
C Am C G
Нынче я опять проснулся у собачьей конуры
Dm G C Dm G C
И опять меня старуха не пустила на порог
C Am C G
От обиды я, чуть было, как собака не завыл,
 
 
G D G Em G A
Нынче я опять проснулся у собачьей конуры,
C D G C D G
И опять меня старуха не пустила на порог.
G D G Em G A
От обиды я чуть было, как собака, не завыл,
C D G D Am H7 Em
Кто б меня опохмелил и встать на ноги помог.
 
 
Вступление на басу:
D------------------------------
H-|----------2-1-------------------2-1-----
A-|-2-22-2-2-----4--------2-22-2-2-----4-2-
E------22-2-4------------------
D#5 C#5 H G#m
Нынче Я опять проснулся
H C#
Intro:
A5 H5 D5 E5
1---------------7-7----7---10-10--7-10---12-10-9-7-------------------------
2---10-10----10-----10-----------------------------------------------------
3---------11---------------------------------------------------------------
4--------------------------------------------------------------------------
5--------------------------------------------------------------------------
6---------------------------------
Вступление на басу:
D|----------------------------------------
Н|----------2-1-------------------2-1-----
A|-2-22-2-2-----4--------2-22-2-2-----4-2-
E|----------------22-2-4------------------
D#5 C#5 Н G#m
Нынче Я опять проснулся
Н C#
Intro:
Hm G A (Asus4,A,Asus4,A,Asus2,A)
E)-2--2----3-3-----0--0-0-0-0-0-0-0--|
H)-3--3----3-3-----2--2-3-2-3-2-0-2--|
G)-4--4----4-4-----2--2-2-2-2-2-2-2--|
D)-4--4----5-5-----2--2-2-2-2-2-2-2--| [x4]
A)-2--2----5-5-----0--0-0-0-0-0-0-0--|
E)-2--2----3-3-----------------------|
Intro: Hm G A/ (Play 8x)
Hm G A
Шелестит листва,
Hm G A
В лесу шипит змея,
Hm G A
Плывут по небу облака,
Hm G A
 
 
Куплет:
А D A E
Седой старик на вид довольно скверный
A D A E
С бутылкой рома вышел из таверны
A E D F G
Возле молодых он офицеров оказался
A E D F G
 
А D A E
Седой старик на вид довольно скверный
A D A E
С бутылкой рома вышел из таверны
Am Em D F G
Возле молодых он офицеров оказался
Am Em D F G
И сказал один из них: "Ну, вот ты и попался"
 
D A
Пирожки от Ловетт — это знает весь Лондон,
Hm G A D
Кто заходит сюда — не уходит голодным.
D A
Хоть невкусное мясо, но стоит гроши,
Hm G A D
И всегда тараканы отменно свежи!
 
D A G A
Писатель Гудвин был творцом строки со стажем
D A G A
К несчастью все его друзья перевелись
D A Hm G
Но лишь я стал его любимым персонажем
G F# Hm
Как у меня проблемы в жизни начались
 
Бригадный подряд, Король и шут, Пилот и Кукрыниксы
[ E5 ]
E5
Косые взгляды, пустые лица
E5
Вчера не пил, но все же тянет похмелиться!
A5
В него прицелилась Адмиральтейским шприцем,
 
 
Em
Один веселый парень на кладбище друзей своих позвал
"Хотите, на могиле спяшу я вам?" - с улыбкой он сказал
F#m
Друзья остолбенели, не доводилось видеть никому
Em
Таких веселых плясок. В прыжках он доставал рукой луну.
G
 
B D
Помнят с горечью древляне, хоть прошло не мало лет
Cm F
О романтике Демьяне, чей лежит в лесу скелет.
B D
Жаль, никто ему ни верил, но захватывало дух
Cm F
От его былин о фее повелительнице мух.
 
 
Вступление: F#m A
D Hm
Помнят с горечью древляне, хоть прошло немало лет,
G A
О романтике Демьяне, чей лежит в лесу скелет.
D Hm
Жаль, никто ему не верил, хоть захватывало дух
G A
 
G
Помнят с горечью древляне,
Em
Хоть прошло немало лет,
C
О романтике Демьяне,
D
Чей лежит в лесу скелет.
 
 
F#m A F#m
Возвращаясь домой, парень шел по тропе.
Над долиной болот зависала луна.
И услышал он вдруг чей-то крик вдалеке,
И пошел посмотреть, с кем случилась беда.
И по мягкой земле он аккуратно ступал,
Его коварная топь в себя пыталась втянуть.
Недалеко от себя он старика увидал,
 
Intro
---------------------------
---------3-----------5----
------------5-----------7-
---------------------------
--6--7--------7--8-------
play 2 times
A5 F5 G5 G5
Соло в начале песни:
-------------------|
------3-1-----5-3--|
-------------------|
--1-2-----2-3------|
-------------------|
-------------------|
Am F Dm G
 
A C D
Тяжелый гроб несли к могиле
A C D
Крутого парня хоронили
Смеялись и шутили
Над тупым его лицом
Припев:
E G A
 
 
Куплет:
Hm G A
Тяжелый гроб несли к могиле
Крутого парня хоронили
Смеялись и шутили
Над тупым его лицом
Припев:
Hm G A
 
 
Am D Bm E
Это ты. Я не верю,
Am F E
Я не верю, прошло двадцать лет.
Am D Bm E
Двадцать лет, мне сказали,
Am C E
Мне сказали, что ты умерла,
 
C Am
Нет добра
G F
Без петли и топора!
Am C G
Справедливость торжествует
Am C G
Сегодня больше, чем вчера.
 
Intro (от нефиг делать):
1--0-0-------------
2------1----------- x2
3---------2-2-2-1-2
Am
Е-е-е, представляю я...
Am F G E
Вот на стуле я сижу,
solo:
1|---5-7-8p---5-7-8-7-5----10-12-13p----10-12-13-12-10-|
2|-5--------5-----------10-----------10----------------|
3------------------------------------------|
4------------------------------------------|
5------------------------------------------|
6------------------------------------------|
Am
 
Am 002210
F 133211
Gm 000333
Em75- 002333
Am F
Молча брожу я средь полей
Gm Em75-
Тоскую, грущу о даме своей,
 
 
Intro:
Gtr1. Am Dm E
Gtr2. E|-----------------------------------------10-12---------13-12--10-------| 2 t
H|-------10-12--------10-13--12-10--------------------10-----------10----|
G|-----9------------9-------------------10---------10--------------------|
D|--10-----------10------------------12----------------------------------|
A|-----------------------------------------------------------------------|
E|----
A H
Волнующий миг, сладкий миг -
G# C#m
Свершилась детская мечта,
A H
Что мы с тобой в мире одни -
G# C#m
Лишь ты и я, и темнота...
 
Вступление: G | Em | C | D
G C D
В деревушке у реки
G C D
Как-то стали мужики
G Em Am D
Спорить, кто из них мудрей.
G C D
 
Вступление G Em C D
G C D G C D
В деревушке у реки как-то стали мужики
G Em Am D
Спорить, кто из них мудрей.
Мимо старец проходил: "Тот умнее, - говорил, -
У кого усы длиннее".
C D G Em
 
 
Am Am+7 F E
В сквере ошивался человек на вид приличный
Am Am+7 F E
В подворотню он входить боялся, страх вполне логичный
Луна пропала, темнота все поглотила
И парню стало еще страшней чем раньше было
D F#m
Прохожих изучаю, импровизирую, играю
 
A D E A
Solo:
/-slide
1|----------------------------------------|
2|----------------------------------------|
3|----------------------------------------|
4|---------------7---10-10-12-9-10-7------|
5|-0-0-3/7-3-5-8---8----------------------|
Вступление: Hm | Hm7/A | Em/9 | G > 2 раза
Hm Hm7/A Em G F#
В заросшем парке стоит старинный дом -
Забиты окна, и мрак царит извечно в нем.
G A F#m7 Hm A
Сказать я пытался: "Чудовищ нет на земле".
G A F#m7 Hm
Но тут же раздался ужасный голос во мгле.
 
Dm Gm7 Am
С головы сорвал ветер мой колпак,
Я хотел любви, но вышло все не так.
F Gm B Am
Знаю я, ничего в жизни не вернуть,
F Gm A
И теперь у меня один лишь только путь...
Dm C Gm7 A7
 
 
Король и Шут - Пьеса
(Пьеса - 16-ый трек из "Ели мясо мужики")
Соло №1: (играется с глушением)
e|---7-8-9-10-10-9-8-7-
H|-8-------------------
Соло №2: (играется с глушением)
E|-----10-10-9-8-7-
H|-8-8-------------
 
Всупление: Am
Am Dm G C G
Деревья тихо шепчутся, макушками качая
Am Dm G C G
И совсем внимания на нас не обращая.
Am Dm G
Прохладно - теплый вечер в молчании застыл,
F Dm F G
Am Dm
Деревья тихо шепчутся,
G
Макушками качая
И совсем внимания
На нас не обращая.
Прохладный теплый вечер
В молчании застыл
 
Am E
Деревья тихо шепчутся,
Am G
Макушками качая
Am E
И совсем внимания
Am G
На нас не обращая.
 
 
intro: Am-Am
Am Dm
1). Деревья тихо шепчутся,
G Em
Макушками качая
Am Dm
И совсем внимания
G Em
 
 
Дере[Am]вья тихо ше[Dm]пчутся маку[G]шками качаясь.
И[Am] на нас внима[Dm]ния совсе[G]м не обращая.
Прохла[Am]дный теплый ве[Dm]чер в молча[G]нии застыл,
Пету[F]х затих в сарае горла[Dm]нить прекрати[G]л.
А в го[F]лове мутит и а[E]нгелы летают
И все[Am] проблемы та[G]ют, исчезаю[Am]т.
И в поле на пшенице мы славно отдыхает.
Бутулку за бутылкой мы лихо пропускает.
 
 
В оригинале все аккорды берутся с баре.
Проигрыш: Am
Am Dm G Am
Деревья тихо шепчутся макушками качая,
И совсем внимания на нас не обращая.
Прохладный теплый вечер в молчании застыл,
Петух притих в сарае, горланить прекратил.
Am Dm E Am
 
 
[A]Начался дебо[Fm]ш и хаос,
[A]Принесли вина[Fm] и рому.
[A]Первый выстрел сде[Fm]лал Клаус,
[D]Продырярив бо[E]к Немому.
Припев:
Ту[A]т все,[D] как с цепи[E] сорва[A]лись,
[D]Позабы[E]в о то[A]м, что мы[D] - кома[E]нда.
Де[A]вки[D] под столы[E] забра[Fm]лись,
 
 
C#m H A E H F# C#m
Работники ножа и топора
Пили брагу с ночи до утра - ага!
Но какой-то гоблин выбежал из леса,
Сел за стол и заявил:
"Никогда с крутыми я не пил!"
Припев:
E A
 
Am F
О, черти, ранили меня!
G E
А как я славно рвался в бой!
Толпою сбросили с коня!
Я издаю собачий вой!
F G
Раненый воин...
 
F *Dm *Am *Dm B C
F____________________*Dm
По лесной дороге через тёмный лес
*Am________*Dm______B________C
Двигался фургон, разрисован был он;
Странные иероглифы и кельтский крест,
Черепа на дверцах с обеих сторон.
B_______*Bm
 
Вступление:
Hm Em D
4)---------------------------------------|
5)----------------5-6-7-7--5-5-6-7-5--5--| [x4]
6)-7--7-5-6-7-7-7------------------------|
Куплет:
Hm
Бледный вид, безмолвные уста
 
Hm Em F#m
Бледный вид, безмолвные уста, тяжелый камень рядом.
Hm Em F#m
Кто-то замер на краю моста с тупым и мрачным взглядом.
G A D A Hm
Там, внизу купается луна, и шапка тоже там видна,
Em F#m
На голову его натянута она.
 
 
Em Am G
Бледный вид безмолвные уста тяжелый камень рядом
Em Am G
Кто-то замер на краю моста с тупым и мрачным взглядом
С D G D Em
Там внизу купается луна и шапка тоже там видна
Am C H
На голову его натянута она
 
Hm Em G A Hm
Дайте ром!!!! Хой! Хой!
Hm Em
Крик подобен грому
G A Hm
Дайте людям рому
Нужно по-любому
Людям выпить рому
 
Am F Dm
Сидел на озере рыбак,
В лодке с удочкой дремал.
И потому не замечал,
Как на воду лег туман.
А потом увидел он,
Белый пар со всех сторон.
"Что мне делать, как мне быть?
 
(F#m)
H
Тяжело ступая в рыцарских доспехах,
G F#
Молча к ее дому я подходил.
Благородным видом понравиться хотел я
Женщине, которую очень любил.
H G
 
 
Вступление: G D Hm C
Em
Он в лес уходил,
A
И ей говорил,
C D
Он ей с улыбкой нежно говорил:
Em A
 
Вступление: (желательно помедленнее: после 1 удара по струнам, небольшая пауза)
5-9----5----7----4
6-7----3----5----2
Здесь играть, как и написано (по-моему, очень похоже на оригинал)
5-9--------5---------7-------------4-------
6-7--------3---------5-------------2-------
Целый вечер нет покоя парню от его сестер:
"Ты сходи, - говорят, - ночной порою за цветами в сад чужой,
C#m A H G#m
Целый вечер нет покоя парню от его сестер:
"Ты сходи, - говорят, - ночной порою за цветами в сад чужой,
A F#m
Тот садовник, что живет у леса,
A F#m
У него ведь сад такой чудесный..."
C#m A H G#m
 
 
E F#
За окном все будто в сказке
H F#
Ночь, сугробы и мороз.
Кот у печки щурит глазки,
Что же Санта нам принес?
E F#
Только пахнет как то скверно
 
Am Dm E
Пьяный дровосек тащился по лесу,
Встали у него вдруг дыбом волосы.
Увидел он мертвеца в траве некошеной
В новых сапогах, почти не ношенных.
F Dm Am
Эх, я возьму их себе.
F Dm Am
 
Am Dm E
Пьяный дровосек тащился по лесу,
Встали у него вдруг дыбом волосы.
Увидел он мертвеца в траве некошеной
В новых сапогах, почти не ношенных.
F Dm Am
"Эх, я возьму их себе.
F Dm Am
 
Intro:
|A5 |C5 |D5 |E5 Guitar|
| 2x
A|--------|33333333|55555555|77777777| Bass |
E|55555555|--------|--------|--------| |
Bass:
A|--------|--------|55555555|77777777|
E|55555555|55555555|--------|--------|
 
Hm
Как злобно сверкают глаза маньяка
G
Он проклинает всех живых,
A
Но невдомек ему, однако
C
Что есть свой среди чужих!
 
E F# G#m
Тебя я слушал, на что-то надеясь и веря,
G#m E F#
Ты вел меня - я думал, ты знаешь куда.
F# G# E
Я шагал за тобой в тобой открытые двери,
F# G# G#m G F#
А там пустота... Вау-Вау Вау, пус-то-та!
 
Em Hm
Бешеный ветер рвет паруса,
Старый варяг стоит у руля.
Am Hm
Завтра утонут три корабля,
Am D Em
Обычное дело для моряка
Hm Em
 
 
Intro: C H Em C Am G H Em
C D G
Парень к девушке пришел,
Посмотрел в ее глаза.
«Подари, подари ночь с тобой!
Ночь с тобой подари», — он сказал,
H
Он сказал.
 
 
A
На свадьбе скоморох,
D
Был прытким как горох,
E
Он бегал по столам,
A
Кидался пудингом в гостей,
 
Начинается с DRIVE на гитаре:
6|-7-7-7-7-7-7-3-3-5-5-5-5-5-5|
это играется с большой скоростью.Потом продолжается рифами:
5|-9-9-5/7p-7p-7p-7p-7p-7
6|-7-7-3/5p-5p-5p-5p-5p-5
/-slide p-palm mute
Hm A G
А на скотном дворе начиналось утро!
Интро немного замысловатым перебором.
G# F#m Cm |2 раза
Cm
Сегодня кому-то говорят: "До свиданья!"
Gm G#
Завтра скажут: "Прощай навсегда!"
F#m G# Cm
Заалеет сердечная рана.
 
Вступление: H# A Cm H A Cm (Играется перебором)
Cm
Сегодня кому-то говорят: "До свиданья!"
Завтра скажут: "Прощай навсегда!"
H# A Cm
Заалеет сердечная рана.
Cm
Завтра кто-то, вернувшись домой,
 
Hm
Сегодня кому-то говорят: "До свиданья!"
Завтра скажут: "Прощай навсегда!"
E G Hm
Заалеет сердечная рана.
Hm
Завтра кто-то, вернувшись домой,
Застанет в руинах свои города,
 
*Am F E *Am F E
Осеньний ветер крышы рвал, но не смотря на поздний час
G C *Dm E
в округе врядли кто-то спал, стихия не на шутку разошлась.
*Am F E *Am F E
Но вот какой-то парень с криком побежал и принялся махать метлой
G C *Dm *Am
Ах ветер, негодяй ты спать мне помешал, а ну ка
 
Am F
Пр: Я ведь не из робких,
G Em
Все мне по плечу.
Сильный я и ловкий,
Ветра проучу.
Am Dm E
Был сильный ветер, крыши рвал,
 
 
Я ведь не из робких,
Все мне по плечу
Сильный я и ловкий
Ветра проучу.
Проигрыш: Hm Em F#m
4|------------------2-2-0-0-4-4-2-2--
5|--2-2-0-0--------------------------
6|----------3-3-2-2------------------
 
F Em
Вау-вау! Вау-вау!..
F Em
Вау-вау! Вау-вау!..
Проигрыш: Em F (4 раза)
Em
- Что ты вспомнишь перед тем,
F Em
Ловетт:
E
Просто: маленький остров,
E A F#m
В свете заката розов,
F#m
В море безбрежном
F#m A H
 
Em G Am C H (Два раза)
У-у-у-у-у... У-у-у-у-у...
Em G
Старый замок сверкает огнями в ночи,
Am C H
Там вина и шампанского льются ручьи.
Em G
Королевский судья пригласил всех на бал,
 
Em Hm G Em
Сидел с улыбкой он в кабаке,
И кружку пива держал в руке.
C#m G#m F# H
Халдей лукаво его спросил:
"Что веселишься - иль перепил?"
Em Hm Em Hm
"Я не случайно здесь оказался,
 
Каким бы умным ни казался человек,
Каким бы славным ни давал он жизнь идеям!
Но все же в полном одиночестве во век,
Он был и будет шалуном и прохиндеем!
A E D A
Столетний шут схватил за плечи внука:
A E D A
"Запомни, плут, что жизнь - смешная штука!
 
 
C G Bb F
Столетний шут схватил за плечи внука
C G Bb F
Запомни плут что жизнь смешная штука
H F# A C
Когда тебя беда в потоке дней найдет
H F# A E
Засмейся ты тогда и все пройдет!
 
 
G Em
Собралися у дуба
A C G C D
Старинные друзья.
Гремит в лесу посуда,
Готовится стряпня.
G Em
Уже накрыт огромный стол,
 
 
G Em
Собралися у дуба
Am C G F G
Старинные друзья.
Гремит в лесу посуда,
Готовится стряпня.
G Em
Уже накрыт огромный стол,
 
 
G Em
Собралися у дуба
C D G
Старинные друзья.
G Em
Гремит в лесу посуда,
C D G
Готовится стряпня.
 
Вступление:
D
E ---2---2---2---2---2---2------------2---2---2---2---2---2------------
B ---3---3---3---3---3---3------------3---3---3---3---3---3------------
G ---2---2---2---2---2---2------------2---2---2---2---2---2------------
D -0-------0-------0-------0-------
I куплет:
С Am
Первым парнем я был во дворе,
F G C
Всех девчонок я знал очень близко,
C Am
Но ужасно не нравилось мне,
F G C
 
 
(вступление)D,E,A,F#m,D,E,A,F#m...Hm,C#m,E
A F#m
Кругом одни дельцы и не с кем детям поиграть,
Hm C#m E
А ведь у них уже давно потехи час.
Но вот пришел отец и хочет уходить опять,
Они ему кричат: "Ну, посмотри на нас!!!"
D E A F#m
 
*Am_________________F__E
Выходки пьяного суфлёра
Надо немедленно пресечь!
Подло унизил он актёра,
Иную нашёптывая речь.
F_______________G
Он из людей решил Сделать ослов.
C__________________*Am
 
C5 G5 C5 F5
 
Мечтать о счастье так смешно,
Когда все в жизни решено.
Когда, как воду, вновь и вновь
Ты проливаешь чью-то кровь.
G5 G#5 A5 F5
И снизу дно, и сверху дно -
 
C F
Мечтать о счастье так смешно,
Am G
Когда все в жизни решено.
Когда, как воду, вновь и вновь
Ты проливаешь чью-то кровь.
C E Am
И снизу дно, и сверху дно -
 
Hm G A
У пруда сидел художник
Hm G A
Тосковал о чём-то своём
Hm G A
По воде водил ладонью,
Hm G A
Наблюдал, как солнце встаёт.
 
Куплет:
Нm G
Деревня укрылась меж шумных лесов
Em F#
Туда совершенно случайно попал
Hm G
Один покупатель старинных часов
Em F#
Слова - Андрей Князев.
Музыка - Михаил Горшенев.
Вступление:
E Hm G A > 2 раза
e|-------7-|-------7-|-------7-|-------9-|
H|----9----|---------|---------|---------|
G|---------|----7----|----7----|----9----|
D|-9-------|-9-------|---------|-7-------|
 
Вступление и куплет:
D:-------0-0----2-2- \\
A:--0-2-------------- 4 раза
E:-----------0-2----- /
D:-------2-2------2-2----------0-0-------0-0---
A:------------------------------------------------
E:--0-3-------0-3----------0-3-------0-3-------
D:-------0-0------0-0----------2-2-------4-4---
Hm C#m G A
Hm C#m G A
Той жизни не помню, все как во мгле,
И это порою нравится мне.
Отныне изгоем быть не с руки,
Повсюду со мною ученики.
D
И если мой опыт
 
*Em
- Бойтесь тени!
__________________
Бойтесь моей тени, господа!
_______*Am___G
Она глупа и непослушна!
Ради смеха,
Ради смеха вы пришли сюда,
 
Em G Am G Em
E|-----0-3------0-5-5-3------3-0---|
H|-0-3------0-3----------0-3-------|
Em G Am H
Спрыгнул я в пустой колодец, чудом уцелел,
Em G Am H
Но мне было все равно, я больше не хотел
C D G Em
x2
--------------------------
1-1-1---------1-----------
------------2---4-2-2---0-
------2-2-2-----------3---
--------------------------
--------------------------
1-1-1-1-0-----0---------5-3-1-1-7-5-3-5-1-0---------------
 
Куплет:
E G A
Спрыгнул я в пустой колодец, чудом уцелел,
E G A
Но мне было все равно я больше не хотел,
C D G Em
Видеть как вокруг меня сходят все с ума,
A Hm C H
 
 
Я б это с радостью забыл,
Как вспомню, так кидает в дрожь,
Но расскажу вам все как было,
Устал от ваших кислых рож
Intro:
A
3|-7-------------------------|
4|----10>9>7--5-7--9-7-------| > x 4
} Обыгрывание на басах
(1) Однажы, надравшись, я вылез в окно
На речку угрюмо взглянул
Вода была красная, будто вино;
У берега кто-то тонул!
< C5 F#5 C#5>
Я мог бы, наверно, бедняге помочь, но ноги пошли не туда,
< C5 D5 A5 H5 C#5>
 
 
Я б это с радостью забыл
Как вспомню, так кидает в дрожь
Но расскажу вам все как было
Устал от ваших кислых рож
Em
Однажды набравшись я вылез в окно
Am G Em
На речку угрюмо взглянул
 
 
Я б это с радостью забыл.
Как вспомню, так кидает в дрожь,
Но расскажу вас все как было -
Устал от ваших кислых рож...
Intro:
Am - x4
Am F Dm G C E
Verse 1:
 
 
Am E
Утренний рассвет, солнце поднималось над землей,
Просыпался лес, восхищаясь розовой зарей.
Над озером стоял, клубился белый туман,
В овраге под горою шелестела листва,
Луч солнца улыбался и с росою играл,
Особенно прекрасны утром эти места.
Dm Am E Am Dm Am E Am
 
Fm B C
Утренний рассвет, солнце поднималось над землей,
F#m H C#
Просыпался лес, восхищаясь розовой зарей.
Fm B
Над озером стоял, клубился белый туман,
F#m H
В овраге под горою шелестела листва,
 
 
Dm A# C
Пролетели дни,
Dm A# C
Фокусы мои,
Dm A# C
Странные для всех,
Dm A# C
Обрели успех.
 
 
D#m H C# A#
Чистил Фред колодец свой,и под мутною водой
В платье девичьем скелет обнаружил Фред.
И зачем-то,вот вопрос,в дом к себе его отнес.
Утром беды начались-ноги отнялись.
H G#m C# A#
Бедный Фред от горя помешался вскоре,
Стал свою находку называть судьбою.
 
Бери топор, руби хардкор!!!
Гони чертей!
B E B E
Как известно на Руси
G A
Лучше Ваньку не беси,
А то схватит он топор
И пойдет рубить хардкор!
 
Intro:
G5 A5 D5 H5 (играется с Palm Mute)
Для 2 гитары:
G|-7--5--8-7--5--8-7--8--10--7--8-|
G A
У меня есть нож, есть арбалет
D Hm
Они служат мне уже тысячу лет
 
H G#m E F#
Добро пожаловать, друзья, в таверну мою,
Я на ночь комнаты сдаю, вы здесь как в раю.
А и если у вас в карманах денежки звенят -
Вам буду я рад, гостям я выпить подаю,
E F#
От них чего-то узнаю.
Hm D E
 
 
Gm F
Холодное тело к воде я поднес,
Cm F
И в лодку его положил.
Gm F
"Плыви дорогая, - я ей вслед произнес -
Cm F
Мне хватит измены и лжи.
 
Как-то раз в Карибском море захватили мы фрегат
Он достался нам без боя. Ликовал в ту ночь пират
Нас не мучали вопросы: Почему на корабле
Ни единого матроса не скрывается во мгле
Дни весёлые настали, дьявол круто пошутил
Очень скоро мы узнали, что корабль проклят был
D Hm Em G
Право, не могу не улыбаться, часто вспоминаю я,
 
 
Вступление: Am x4
Am G
\"Отец наш небесный, благослови!
Dm E Am
Я хочу умереть во имя любви.
Am G
Отец наш небесный, благослови!
Dm E Am
 
A#
От козы пахло сеном и молоком,
Gm
На нее забирался пацан верхом.
D# F
У калитки сидели на лавочке несколько баб.
Gm F
Бес костей языки, уши лопухи,
 
Em
Крутится вертится шар голубой,
Am Em
Крутится вертится над головой,
Am Em
Крутится вертится хочет упасть,
H7 Em
Кавалер барышню хочет украсть! Ой!
 
Вступление
D:--5-4-3-2---------------- \\
A:--2-2-2-2---5-4-2------- 4 раза
E:--------------------------- /
F#m F# G
Этот парень - отраженье
Hm Em A
Тех глупостей, что мы годами копили в себе.
Все сегодняшние новинки находятся тут