Аккорды к песням для гитары

«Коррозия Металла» аккорды

Ритм 1 4 раза
||------------------------|------------------------|------------------------|----------------------|
||------------------------|------------------------|------------------------|----------------------|
||*-----------------------|------------------------|------------------------|---------------------*|
||*----------h-p----------|-----------h-p----------|-----------h-p----------|-
 
G#5-A5 G#5-A5 G#5-A5 C5
G#5-A5 G#5-A5 G#5-A5 C5
G#5-A5 G#5-A5 G#5-A5 C5
G#5-A5 G#5-A5 G#5-A5 C5
A5
Огненной водой наполняй стакан
Вместе с Сатаной выпей за меня
F#
 
 
на * акцент
Вступлени:
* переезжаем(slide) на
1----| |---
2----| |---
3----| |---
4|-2-2-2-2-3-3-3-|Х8 |-8- потом пауза и повтор
5|-2-2-2-2-3-3-3-| |-8-
 
Вступление:
A|-7-7-7-8-8-8-|
E|-5-5-5-6-6-6-| (4 раза)
A5 A#5
Странный безумный маньяк
C5 D5
Заражен чумой кровавой
И в походе на восток
 
 
INTRO:
E|-0-3-0-3-0-3-0-3-6-3--|-0-3-0-3-0-3-0-3-------|
H-----------------------|
G-----------------------|
D------------------8-5--|
A------------------8-5--|
E------------------6-3--|
E5 G5 E5 G5 E5 G5 E5 G5 B5 G5 | x8
 
Tempo=120
Intro
(00:08-00:59)
GTR1
e-----------------------------|
B-----------------------------|
G-----------------------------|
D|7-----------------|7-----------------|7-----------------|7------------------|
 
Делай, Что Хочется.
Делай, Что Хочется. INTRO|INTERLUDE END
e |-----------------------------|------------------------------|------|
B |-----------------------------|------------------------------|------|
G |-----------------------------|-1010101071010107-7-7-5-7-7-7|------|
D |-3~~~------------------------|-1010101071010107-7-7-5-7-7-7|-5-6-7|
A |-----------------------------|-8-8-8-8-58-8-8
 
Дьявол здесь.
F#m
Сумерки спускаются на город
Am Hm
В черный саван прячутся дома
F#m
И по туже затянув свой ворот
Am Hm
 
 
Intro:
e ------------------------------------------------------------|
B ------------------------------------------------------------|
G |-9-9-x-9-7-7-x-7-4-4-x-4-4--9-9-x-9-7-7-x-7-4-4-xx-4---3/4-4-3/4-4-3-4-|
D |-9-9-x-9-7-7-x-7-4-4-x-4-4--9-9-x-9-7-7-x-7-4-4-xx-4---3/4-4-3/4-4-3-4-|
A |-7-7-x-7-5-5-x-5-2-2-x-2-2--7-7-x-7-5-5-x-5-2-2-xx-2---1/2-2-1/2-2-1-2-|
E ------------------------------------------------------------|
 
MAIN RIFF
e ------------------*--------------------------|
B ---------------------------------------------|
G |0-------------10------------12-------------10-----5--7--|
D |0-------------10------------12-------------10-----5--7--|
A |0-000-000-000-8-000-000-000-10-000-000-000-8-0000-3--5--|
E ---------------------------------------------|
*not sure about this chord
 
Над равниной крик и стон, и кровавый дождь
Черный всадник как дракон – Таплиеров вождь
Черный праздник Сатаны пролил кровь на свет
И священный меч войны разрубил секрет
Наш король – посланник небес
Наш король – как призрачный бес
Наш король – избранник судьбы
Наш король – это лишь ты
 
Моторокер-Коррозия Металла
Орден Сатаны
Ритм1 4 раза
||----------------------------------------|
||----------------------------------------|
||*-7--5-7--5-7-5------------------------*|
||*-7--5-7--5-7-5-0---------5--0---------*|
||----------------0-0-0-0-0-3--0-0-0-0-0--|
 
intro:
G5 A5 G5 C5
G5 A5 G5 C5
Утро, скоро в школу надо, но не в кайф вставать
G5 A5 G5 C5
по дороге выпил пива, я хочу блювать
И Т Д
ПРОИГРЫШ=INTRO
 
 
Intro:
e |------------------------------------------------|
B |------------------------------------------------|
G |----------------10-11-10------------------------|
D |-8-8-11-8-(6-8)-10-11-10-11-8-------------------|
A |-8-8-11-8-(6-8)-8--9--8--11-8-------------------|
E |-6-6-9--6-(4-6)----------9--6-/xxxx--(feedback)-|
Verse:
 
C
Ночь вернулась.Что случилось?
G
Но не спит никто во мгле
F C G
Где ангел, ангел снов и мглы?
C
Здравствуй, друг. Я - добрый ангел
 
 
A#5-A5 A#5-A5 A#5-A5
A#5-A5 A#5-A5 G5-A5
C5-H5 C5-H5 C5-H5
C5-H5 C5-H5 A5-H5 H5-A5
A5
Дикий крик прорезал сумрак -
G5 A5 F5 G5
Зло не дремлет, зло не спит
 
 
E5 G5 E5 G5 x4
E5 G5 E5 G5 A5 C5 A5 C5
Хайл, Фюрер, веди нас в бой,
Штурмовик одевает каску,
Наша революция длинных ножей
мир раскрасим в коричневую краску.
E5 G5 E5 G5 x4
Ночь, город, предатели спят,
 
 
E5 D5
Я курил вторую сигарету
C5 А5
Раздался в парадной стук
E5 D5
Со мной была неодетая
C5 F5
Блядь Мария Исупова