Аккорды к песням для гитары

«Крупский Сотоварищи» аккорды

Играть на протяжении всей песни !
Am Dm E
1-|--0--0--0--0--0--0--0--0--1--1--1--1--1--1--1-----0----------------------
2-|--1--1--1--1--1--1--1--1--3--3--3--3--3--3--3----0-----------------------
3-|--2--2--2--2--2--2--2--2--2--2--2--2--2--2--2---1------------------------
4---------------0--2--3--2--0--2--3---2-------------------------
5-|-0--2--3--2--0--2--3--4-----------------------2--------------------------
 
E7 A7
Ночь превращается в день,
A7 E7
День превращается в страх,
Страх превращается в тен,
Тен превращается в прах.
Боль позабудь и поверь -
Смерть будет толко одна,
 
 
Fmaj7(add B)/E -0- Bm -2- C -0- F -1- G -3- D -2- Am -0- 1-я струна
-0- -3- -1- -1- -0- -1- -1-
-2- -4- -0- -2- -0- -2- -2-
-3- -4- -2- -3- -0- -0- -2-
-3- -2- -3- -3- -2- -0- -0-
-0- -2- -0- -1- -3- -0- -0- 6-я струна
Bm - баре 2 лад (указательный палец поперек струн )
F - баре 1 лад
 
 
Am Dm
Дом казенный предо мной,да тюрьма центральная
Am G C F Gm A7
Ни копейки за душой,да дорога дальняя
Dm E F A7
Над обрывом пал туман,кони ход прибавили
Dm Am Dm E Am
Яб махнул сейчас стакан, еслиб мне поставили
 
 
Em
Полу увядших лилий аромат,
D
Мои мечтания легкие туманит.
C
Мне лилии о смерти говорят
C D Em
О времени, когда меня не станет (x2)
 
 
Басс - ритм
G|---------|-------|
D||*------0-2-----|------0-3p-2---*||------0-2-----|------0-3p-2---|
A||*----2---------|----2----------*||----2---------|----2----------|
E||---0-----------|--0-------------||--0-----------|--0------------|
-------------------------------|
------0-2-----|------0-3p-2---|--2-----2-----2---|----2-----2------|
----2---------|----2----------|----2-----2-----2-|------2-----2----|
 
C G C G Am Asus2 Am
Выпив дважды по двести
У буфетчицы Лены
Я гляжу в поднебесье
Сидя в душной пельменной
А я леплю темный шарик
Из орловского хлеба
Я хочу быть как солнце
 
 
Am Em С С Em G Am
Выпив дважды по двести
У буфетчеци Лены
Я гляжу в поднебесье
Сидя в душной пельменной
А я леплю темный шарик
Из орловского хлеба
А я хочу быть как солнце
 
 
Вступление: Em---D---G---Hm7---D---Em
Em D G Hm7 D Em
Выпив дважды по двести
У буфетчицы Лены
Я гляжу в поднебесье
Сидя в душной пельменной
А я леплю темный шарик
Из орловского хлеба
 
Intro
G-----------------------------------------------------|
D------------------------------------5p4--------------|
A-----10--9--7--5--------3-------3h5-----5-5/7--5--7--|
E--0/--------------7--3-------------------------------|
G-----------------------------------------------------|
D-----9---5---9---10---9---7---5----------------------|
A-------7---7---7----7---7---7----7------------------|
 
Intro(8 раз)
E=========================================================--
B=========================================================--
G===6/8-8-8===6/8-8=======================================--
D===6/8-8-8===6/8-8=======================================--
A===4/6-6-6===4/6-6=======================================--
E=========================================================--
Verse