Аккорды к песням для гитары

«Мумий Тролль» аккорды

+28
Intro
Riff1:
E A F#m
e----------------------------------------------------------|
B----------------------------------------------------------|
G----------------------------------------------------------|
D|-----2--4--6----6--4h6p4h6----4--6-6--4h6p4h6----4--6-6--4h6-7--6----|
A|--2----------------------------------------------------------------7-|
 
Вступление (2x):
E A F#m F#m
1 --------------------------------------------------------------------------------------
2 --5-7-5-9-9-7-9-7-9----7-9-9-7-9-7-9------7-9-9-7-9-7-9-5-----------
3 --------------------------------------------------------------------------------------
4 --------------------------------------------------------------------------------------
5 -------------------
 
F#m A
Carnival is over, we’re leaving behind
E
Kisses and gondolas, hugs overnight
F#m A
No potion left, to cherish your way
E
My bed of roses what blossom away
 
Am
When the dolphins dripped under skin
Dm
Waving vanes I feel no worries
Em
Crushed by mountains I house give in
Dm Em
Bung jump would give you safe is always
 
Hm
Утекай
E Em
Watch your back - it's a maniac's truck
Hm
Hi'll been waiting for you, you will hide
E Em
All the beauties have lost their charms,
 
Cm
Let me take your bullets
Melt them into ballets
I would weirs and strings I would
G# G
Making other song
You would listen to it
And your girl would like it
 
Am Dm6
If your fictioned smile is disapeared
E Am
And your eyebrow raises a sulky cove
A7 Dm
If your friend turn away from you [exosted]
Am H7 E7 Am
Means your love isn't there anymore
 
 
(Am E) * 4
Am E
To love newcomers fashion
Am E
Oh so special
Am E
You may want to believe me
F E Am
 
 
intro:
Am Em
1)--------------------------0------------
2)-------1-1p0--------0---0---0h3-1-0-1--
3)-2---2-------2-0-2----0----------------
4)---2-----------------------------------
Fmaj7 Am6
1)-----0----------------0----------------
 
intro: A E Hm G# D Am E
A E
To love newcomers fashion
Hm G#
Oh, so special
Am E
You may want to believe me
Hm G#
 
Intro: Am G Em Dm
Verse:
Am
Why?
G Em Dm
Wanna tell me bye bye?
Am G
Shy
 
C C/h Am G
Всё криво и сыро.
Am G
Остекленелые взгляды мира
C F
Убийственно некрасивы.
Am G Am
Очерченные пунктиром дыры,
 
 
Dm
Morning after, after, after
F
Show pary, party pleasure
C
Take him lives is sleeping beauties
A A7
Sorry, Angel
 
G#m
G#m F#
Наверно, ты убийца...
C#m H F#/B
Я клею всюду объявления:
G#m F#
Останови мгновения,
C#m H F#/B
 
Am
Grenade in my pocket, a pin in my hand
The Local sea-gull language, I can almost understand
Dm
I’m awful resistance, not hide and not a thief
C E
The lather looks up to the sky, and with having breath
The fog disovermelted, when moon moved oversee
 
Intro
Gm Cm Eb D
 
Verse
Gm
Ты ходишь курсом акулы или паука
Bb
Где ткани рвутся но связь сердец крепка
 
 
Verse1:
Am
У меня подружки из ближайших дискотек -
Em
Взгляд скользит по парням с полуприкрытых век,
Am
Фигура по плэйбою белье Коко Шанель,
Em
 
 
Вступление: G Hm F# G G Hm F# F# - 2 раза
G Hm F# G Hm
Ветер обнимает сзади поднимает юбки
F# G
Обнажает танцы
G Hm F# G Hm
Ненавидишь вечер если бы на теле
F# G
 
Вступление:
Em > 4 раза
Em7
Кто ушел из этой банды первым,
Am7
Кто устал, или подвели вдруг нервы.
Как тебя звали, куда тебя звали?
F H7
 
F E7
Снова вижу эти земли –
Am Am/c F E
С горизонта сила ветра позволяет.
F E7
Удаляюсь, прижимаю
Am Am/c F E7
К груди кортик, он наверняка не помешает.
 
Am G D E
F F E E
Снова вижу эти земли
Am C F E
C горизонта сила ветра позволяет
F F E E
Удаляюсь прижимаю
Am C F E
 
 
Bass:
E|--2-4444--2-4444--|
MainRiff:
G#m G#m Bm Bm C#m
G|--4-----4--7-----7--9--------6--6--4^---------------------------
D|--6-----6--9-----9-11----4h6-----------6------4-6---------------
A|--6-----6--9-----9-11---------------------6-6------4^--2--------
E|--4-----4--7-----7--9-------------------------------------2--3--
Вступление:
Hm | D > 4 раза
Hm D E
Всем телепрограммам приходит однажды конец,
F# Hm D E
Ведь спутникам и их антеннам не все держать связь.
Hm D E
Они могли бы тоже хотеть и любить отдохнуть.
 
подобрал Jim
intro: C F Dm G
verse1:
C F
Я вчера услышал на улице Бит-Бум
Dm G
Бит-Бум поразил меня и поразил мой ум
Часы отсчитали всего несколько минут
 
 
Эта тема типа вступления.
Так же можно ее играть во время куплетов.
Короче кто слышал тот поймет.
e-|--7--7---2--2---4--4---0--2-
H-|--9--9---4--4---5--5---2--4-
G-|--9--9---4--4---6--6---2--4-
E H
Я вчера услышал на улице Бит-Бум
 
Verse1:
Am Dm
Блудливые коты блуждают по помойкам,
E Am E
Они там рыщут в поисках дела,
В темных углах неоконченных где-то стройках,
На радиаторах грея тело.
Chorus:
 
 
Dm Dm+7 Dm7 A7
Знаешь, смотрю я, и так захотел
Dm Dm+7 Gm C7
Тебя разгрызать как карамел.
F Hmadd-9 Gm E7
Свет не тушить ни сейчас, никогда.
Am D7 Gm C7
Еще бы сказать такие слова -
 
 
Вступление: Hm D A
Hm A
Все! А ты мне больше нет брат!
G F#
Хоть раньше я за тобой в Рай или в ад.
Жизнь, однако дали на раз -
Проверить кто там из нас типа милый.
И, если я перешел вдруг за край,
 
Вступление: Bm D A
Bm A
Все! А ты мне больше нет брат!
G F#
Хоть раньше я за тобой в Рай или в ад.
Жизнь, однако дали на раз -
Проверить кто там из нас типа милый.
И, если я перешел вдруг за край,
 
 
Intro: Em C Am B (x4)
Verse1:
Em C Em C
Огнями колотит Шанхай в лоб,
Em C Em C
Осколками разбились на части сердца,
Am C Am C
В опере весь хрустальный свод,
 
 
D|-11-11-11-11-11-11-11-11-9-9-9-9-9-9-9-9-8-8-8-8-8-8-8-8-
A----------------------------------------------
D|-7-7-7-7-7-7-7-7-----------------------------------------
A------11-11-11-11-11-11-11-11-9-9-9-9-9-9-9-9-
D---------------------
A|-7-7-7-7-7-7-7-7-5-5-5-5-5-5-5-5
Ниже приведенная тема играется не на гитаре!!!, Но и на этом инструменте она звучит не
плохо:
Intro: Am Еm F (х2)
Verse1:
Am B
Словно вдруг напившись ночь свет забыла отключить,
Bb Е
Так было светло-o губы, шепот, вино - ooooo.
Шофер сизый сказал, сверясь с картой страны,
Посмотреть на мосты, сигареты, цветы.
 
Bm F# G#
Внезапно мой фонарик погас,
Bm G#
Объяла темнота,
D#m C#
Не видно ничего вокруг,
D#m Bm
Пропала красота.
 
 
Dm Gm
Вечер бредит тайной,
C Am
Стук за мной хлопнувшей двери,
F G Gm
Боевой барабан выводит в аллею огней,
Dm Gm
Мигание светофора,
 
 
Intro: C, G, F, G
Am
Я голоса других планет
F
Услышал за столом в обед,
Dm
Поглощая за столом
G
 
 
Intro:
(Am)
G|-5-5---5-5-5---5-|-7-5-4---5-------| Dist
| | | | | | | | | | | | | | | | X 2
A|-0-0---0-0-0---0-|-0-0---0-0-0---0-| Bass
Verse:
Am Am
С гранатою в кармане с чекою в руке
Подбор: Maniac
Вступление
1------------------------------------------------------------
2|--1---1-1---1--3--1--0--1----------------------------------------------
3------------------------------------------------------------
4------------------------------------------------------------
5------------------------------------------------------------
6------------------------------------------------------------
 
Am
С гранатою в кармане, с чекою в руке мне чайки здесь запели на знакомом языке
Dm F Em
Я отходил спокойно не прятался не вор, колесами печально в небо смотрит круизер.
Когда туман растаял и проныла луна, со смены не вернуласы молодая жена,
Вода отравиться, погаснет свет, утихнет звук, к тебе я больше не вернусь такой теперя
я д
 
 
Em
Водопады слез -
B7
Следы этой любви.
Em
Ракетою в небо или в землю,
B7
Только ты меня позови.
 
Intro: Em F
Vеrsе:
Em F
Я обдуваемый всеми ветрами
Em C
И на ресницах моих
Em F
Лед - это мои застывшие слезы,
 
 
Em Am Em
Я обдуваемый всеми ветрами
F Em
И на ресницах моих лед
C Em
Это мои застывшие слезы, здесь...
F Em
Я начинал свой поход
 
 
Intro
E|-----------------------------------------------------------|
B|-7---7---7-7-7---5-5-5-5-5-----------0---------------0-----|
G|-7---7---7-7-7---5-5-5-5-5-----2-------2---------2-----2---|
D|-7---7---7-7-7---5-5-5-5-5---2---1-------1-----2---1-----1-|
A|-5---5---5-5-5---3-3-3-3-3-0-----------------0-------------|
E|-----------------------------------------------------------|
D C Am
 
Intro:
Am Asus4 Am Asus4
E|--------12-------|-----------------|--------12-------|-----------------|
B|----------13--15-|-----------------|----------13--15-|-----------------| GU
G|-----14-----14---|-----------------|-----14-----14---|-----------------| IT
D|---14--14--------|-----------------|---14--14--------|-----------------| AR
A|-12--------------|-----------------|-12--------------|-----------------|
 
Intro:
Am Asus4 Am Asus4
E|--------12-------------|--------12-------------|
B|----------13--15-------|----------13--15-------| GU
G|-----14-----14---------|-----14-----14---------| IT
D|---14--14--------------|---14--14--------------| AR
A|-12--------------------|-12--------------------|
| | | | | | | | | | | | | | | | | | | | | | | | | | | | | | | |
 
Intro: Am (х2)
Vеrsе1: Am Dm G A
Am Dm 1|--5---5---3--5-
Шум волн, услышу ли я этот звук 2|--5---6---3--5-
Am Dm 3|--5---7---4--6-
Вновь ? Мы рождены терпеть боль и греть 4|--7---7---5--7-
Am Dm 5|--7---5---5--7-
Кро-овь. Но тень дня, Луна
Соло во вступлении:
|--------------------------------|--------------------------------|
|--------------------------------|--------------------------------|
|--------------------------------|--------------------------------|
|--------------------------------|-------------------7/9-12--12---|
|--------------------------------|-------------------7/9-12--12---|
|--------------------------------|--------------------------------|
Hm D
1)--------------------------------------------------|
2)--5-6-6--5-8-5-------6-6--------------------------|
3)-7------------5---5-5----8-5-7---7-8-7-7-5-5-----5| - 2 раза
4)-------------------7------8-----------------8-7-8-|
5)--------------------------------------------------|
6)--------------------------------------------------|
Bb F
Как ты только мне не улыбаешься
 
Исполняется на двух гитарах - ритм и соло. Ритм играет все время.
intro rhythm Cm(III) Dm(V) Gm(III) Gm(III) x2
intro solo x2
e-----------------------------------------------------------------------------|
B|--3--5--6-6----5----8--5-----------------6-6--4-----------------------------------------|
G-----------------5----52/5-----------3-5--7---78-7-7---5-5--3---2---3---5--|
D-----------------------------------------------------------------------------|
A-----
 
Intro: Am F Dm Em 3-раза
Am
Ты пила меня жадно
E
Но было мало
Am E Am
Падал нектар и плавился на губах
E
 
 
G Hm7 Em
В серой холодной стране на мокром песке
G Hm
За несколько дней до первого снега
G Hm7 Em
Старательно я выводил замерзшей ладонью
G Hm
Как будто портреты твои...
 
 
Intro: F F G G Dm Dm Fm Fm
Am Ammaj7/G# Am7/G Am6/F# F Fm
Verse:
Am Ammaj7 Am7 Am6
Обмороженные части в огонь весны бросали мы
F Fm C Dm
И таяли на глазах они как слезы седой зимы
E E Am Ammaj7
 
Intro: С (х2)
1|-х-----х-х-----х-х-----х-х---х--
2|-1-----1-1-----1-1-----1-1---х--
3|-0-----0-0-----0-0-----0-0---0--
4|-2-----2-2-----2-2-----2-3---2--
5|-3-----3-3-----3-3-----3-х---х--
6|-х-----х-х-----х-х-----х-х---х--
| | | | | | | |
Am
Из-за твоей большой спины
D
Не видно ни черта
E
Ну и спина
Am
Вот это да
 
intro: Hm, G, D, A. | 2 раза.
G Hm A
этот кто-то, кто-то как луна,
G Hm A
раздевает, тронет дальше льна,
G Hm A
но ты еще не самый последний на этой земле,
G Hm A
 
 
C#m A
Закроем окна, задерни шторы
E H
Чтобы ночью не залезли воры
C#m A
Радио, телефон, закончился день
E H
Выключай скорей всю эту дребедень.
 
 
Intro: A5-G#5-A5 (x?)
Verse1: A5 G#5 G5 F#5
A5-G#5-A5 4|-7---6--5---4--
Голубки сели, голубки плыли, 5|-7---6--5---4--
В этажах зданий, вили и любили. 6|-5---4--3---2--
G5-F#5-G5
Проводов роки, стилетами сверкнут,
A5-G#5-A5
 
Am Asus2 F Fm x2
Am Am Dm Dm
Мне под кожу бы под кожу мне запустить дельфинов стаю
Em Em Dm Em
Там у сопки у подножья где я тебя насти-настигаю
Am Am Dm Dm
Режем мы полоски длинные разветвляем юность ставя крабам
Em Em Dm Em
 
Вступление: Cm | Gm | Fm | G7
Cm Fm
А что случилось, мне не рассказать обычными словами,
G7
Как будто я послушал тебя новыми ушами.
Cm Fm
Как будто я дотронулся волшебного колодца,
G7
 
Intro:
Am
А-ха-ха
Dm
А-ха-ха
F
А-ха-ха
E
 
Вступ: Em C A
Em C Em C
Когда не выпьет луна теней
Em C Em C
Когда повесится диджей
Em C A
Скорей Е ие ие и ей
Em C A
 
C Am
Простужен и промахнулся,
Em C Am
Связался, отправил послание,
Em C
Бери мои уши, считай мои деньги,
Em C Am H
Пока я учился шептать на прощание.
 
 
Em C Em C
Огнями колотит Шанхай в лоб,
Em C Em C
Осколками разбились на части сердца,
Am C Am C
В опере весь хрустальный свод,
Am C Am H
Топит джонки любовный снаряд.
 
 
G#sus 466644 (или 464644)
C#m7 x46454
A7 565755
G#7 454644
Intro: C#m7 F#5 A7 G#sus G#7
C#m7 F#5
ему не взять тебя с собою,
A
 
Am Dm6
Если милой улыбки не стало,
E Am H7 E7
И нахмурилась тонкая бровь,
A7 Dm Dm6
Если вдруг ухмыльнулся устало,
Am H7 E7 Am
Это значит уходит любовь.
 
 
Em A
Миллионы газет и журналов
Em
Ежедневно глотает толпа
A
Но обманывать этого мало
Em
За статьями выходит статья
 
 
Intro:
1)----------------------------------------------|
2)------------------------3------------3--------|
3)--/9--7----/9--7-----------2--0---------2--0--|
4)--------7--------7---3------------3-----------|
Verse1:
D Hm
Тысячелетие наперевес -
Intro: Cm X4
Verse:
Cm Cm
Мне бы твои пули
Cm Cm
Переплавить в струны
Cm Cm
Может быть другая песня
Am E F
Здравствуй еще раз здравствуй
Fm C
Привет красавцы здравствуй
E E
Забрызгали все красной лаской
Давлю воспоминания пастой
Боли ужасной помочь не сможет гель
 
Вся песня, вроде, играется в 3 аккорда. Поправьте, если не прав.
|----------|
|-F--C--Dm-|
|----------|
intro: Riff1
Что ж если уж и твой муж
Прячется в душ,
Когда ты балуешь.
 
F C Dm Dm
F C Dm Dm
Что ж если уж и твой муж
F C Dm Dm
Прячется в душ когда ты балуешь
F C Dm Dm
На виду не у тех а с кем ты дружишь
F C Dm Dm
 
 
A G Hm
Смотри как нежно кладет под язык в рот -
A G Hm
Вкусная.
A G Hm
Падает молча, тихо встает -
G Hm A
Грустная.
 
Am Dm6 E Am Am/g Am/f#
И если честно, то собирайся.
Dm6 E Am Dm6
Ты можешь оставлять свой адрес и мобильник, конечно,
E Am Am/g Am/f#
Ничего такого,
Dm6 E Am
Если попросишь кофе, заглянешь в холодильник.
 
Вступление:
Am F Dm C E
Am
Я буду.
Я буду.
F
Я буду тебя
Dm
Соло 1 : (2 раза)
1--------------------------
2--------------------------
3|--7-5-4-0-4-5-4-2---7-5-4-0-4-5-7-5--
4|-7-----------------7-----------------
5--------------------------
6--------------------------
Bass (постоянно)
 
e)-----------------------------------------------------------------
B)-----------------------------------------------------------------
G)----------------------------------------------------------------- x2
D)-----0---0---------------------------------------------0---------
A)-0---------3-------------3-0-------3---3-2---------------3-------
E)---------------0---1-1---------3-------------3---5-5-------------
Am(V) F
В ночном небе нет комет
 
intro:Hm G Dm Em
verse:
Hm G
В ночном небе нет комет
Dm Em
Вся планета в мире снов
Вдалеке увидел тусклый свет
Это знак из других миров
 
 
Проигрыш: Am F G Am (X2)
Am F G Am
В ночном небе нет комет, вся планета в мире снов.
Am F G Am
Вдалеке увидел тусклый свет – это знак из других миров.
И тревожит меня мысль: не один среди звезд я живу.
Видя это, будет вечер – встреча братьев по уму.
Припев:
 
 
C#m A
Видишь ли видишь ли ви я научусь тебя быстро
F#m G#m C#m
Чуть-чуть терпения ласка мы будем править всем миром
C#m A
Откройся мне к поцелуям рефрижераторы стонут
F#m G#m
Нет силы больше морозко рос
 
Бой: Б V^ Б ^V^ или V V*^V^V*^ (семь касаний, где Б - бас, а V* - вниз с глушением)
Am F C E Am (Am7)
Уходит тепло, мне больше нечего жечь.
Am F C E Am (Am7)
Сгибается стружка, Промокла картечь.
F C E Am (Am7)
Кажется, песня уже ни о чем.
F C E Am (Am7)
 
 
Am Dm6
Зачем я в небо лез? Не знаю, зачем...
C Dm
Там космонавтов полно, а я лишний.
Am Dm6
Начистить звезды, чтоб всем было светлей,
C Dm
Не получилось. Видно, просто не вышло.
 
 
Intro guitar x4
4|-----4-------4-------4-------4|
5|-----4-------4-------4-------4|
6|0-22-2--0-22-2--0-22-2--0-22-2|
Bass (после 2 р в Intro)
4|0-22--0-22--0-22--0-22|
Main guitar
1--0-----0-----0--|
 
4|---------4----------4----------4----------4----|
5|---------4----------4----------4----------4----|
6|-0--2-2--2--0--2-2--2--0--2-2--2--0--2-2--2----|
Bass (after 2-nd time of Intro)
4|-0--2-2-----0--2-2-----0--2-2-----0--2-2--------|
Main guitar theme (something like this) dist.
F#m A E E
1---------------0----------------0-----------------0------|
Intro: Am, C, D, E
Am
Не пистолет на поясе, а чудо агрегат
F Am
И я необычайно этой штучке рад
C D
С ушами из синтетики
Am
 
С
где меня еще никто никто не видел,
Hm
где тебя еще никто никто не знает,
Em
ляжем мы на камни как тюлени,
или как положат,
A C
Am
Стараешься быть старше,
F
Выводишь глаза синим
C E
Огромные, солнце-защитные очки
В ливень
Am
 
Am Am7
Когда ты уйдешь и проснется дождь
Dm
Слез не различить, время врозь ведет
G
В разные углы наши с тобой сны
C
Кофе по утрам станет засыпать
 
 
Am G C D Am
G C D Am G C D Am G C D
Угадай кто когда ниже живота
Am G C D Am G C
Зацелован ниже живота
D Am G C D Am G C
Лампочка зажата в кулачке
D Am G C D Am G C D
 
 
Вступление: Dm
Dm A
Считай, твой новый друг осень, я телефона и не просил.
Gm A
Я знал итак, каких подруг там тащат следом.
Холодных или ветренных, что сводит скулы от них.
И сводит даже с ума та бестолочь.
 
 
Вступление: Dm | Gm | C | A > 2 раза
Dm
E|-1-1-1-----------------------1-1----------------|
B|-3-3-3-----------------------3-3----------------|
G|-2-2-2----------2-2-3-3-3-2--2-2----------------|
D|-0-0-0--0-0-3-3--------------0-0----------------|
A|------------------------------------------------|
E|------------------------------------------------|
 
Dm Gm
Мы кораллы мы кораллы мы кораллы
B A
Зацепившись языками за туманы
Как русалок соблазняют капитаны
На любовь подсели рьяно наркоманы
Мы кораллы мы кораллы мы кораллы
Принцы моря и принцессы океана
 
G D Am Em
Бейтесь бокалы дурмана-нектара
H Em D
Сердечного сока!
G D Am Em
От Кейптауна до Владивостока
H Em H
Сегодня танцую я...
 
Вступление: F Dm Am G
Am F Dm G
Нам у меж галактический огней проще,
Am F Dm G
Повстречаться, чем у метро или в Соловьиной Роще.
C F Dm Em
Звезды всегда хороши, небо становится тише.
Am F Dm G G
 
Intro
1----------------------------------------------------------------------------
2--7---7---7-7-7---5---5---5-5-5-------------0-----------------0-------------
3--7---7---7-7-7---5---5---5-5-5-------2-------2---------2-------2-----------
4--7---7---7-7-7---5---5---5-5-5-----2---1-------1-----2---1-------1---------
5--5---5---5-5-5---3---3---3-3-3---0-----------------0-----------------------
6------------------------------------------------------------------
Проигрыш:
С G/H | C
С G/H | C
C G/H Am7
А до тех пор, пока я тебя не нашел... Шел, шел, шел, шел
C G/H Am7
Я тебе ничего не смогу рассказать. Надо ждать, ждать, ждать
Dm C G
 
 
Intro:
Dbm A
1|--- -----------0---------------0---- --------------------------
2|-1- -2---2-1-2-----1-2---2-1-2------ ----------2--------------- (x2)
3|--- -------------------------------1 2---2-1-2-----1-2---------
Verse1:
Dbm A
Сово-сово-сово-совокупление-е, на пыле-пыле-плечах,
 
Intro: Am, C, Em, G
Am C
Слоем снега крышу занесло,
Em G
Телевизор молчит.
Am C
Тело мое внезапно затрясло,
Em G
 
Am7 G
Я эти окна уже все проходил,
F Esus4 E
Бывало страшно чуть-чуть, но теперь все забыл.
Am7 G
Предупреждаю тебя – у нас один парашют.
F Esus4 E
Посмотри мне в глаза, мы пока еще тут.
 
Bm G# Bm G#
Летит вперед наш поезд
Bm G# Bm G#
Эшелон на север.
F#
Где окончится наш путь?
Bm G# Bm G#
Наверно в Магадане...
 
 
Проигрыш: Em A Bm - 2 раза
 
Em Bm G D Em F#
Малек, малек, малек колышется, что лепесток.
Em D G
Ты знай, что не одинок, Ма…
Bm G D
За роем проблем, воем сирен
 
Am Em F G
Теплое, теплое море, жаркое солнце
Am Em F G
Синие, синие волны и пустынный пляж
Am Em F G
Музыка рядом со мною, ты рядом со мною
Am Em F G (G#)
И весь этот берег наш
 
Em Hm C D
Теплое, теплое море, жаркое солнце
Em Hm C D
Синие, синие волны и пустынный пляж
Em Hm C D
Музыка рядом со мною, ты рядом со мною
Em Hm C D
И весь этот берег наш
 
 
C Am
1.Теплое, тепло море,
C G
Жаркое солнце,
C Am
Синие, синие волны
C G
И пустынный пляж.
 
 
Am Em
1.Теплое, тепло море,
Am G
Жаркое солнце,
Am Em
Синие, синие волны
F G(баре)
И пустынный пляж.
 
 
Вступление: C H C H C H C
H C H C
Согрейся твои холоднее стали струны
H C H C H
Я хочу в горы я хочу в дюны
Am C Em
Но как сообщил сегодня наш дозор
Am C Em
 
 
Intro: C B (x4)
C B C B
Согрейся, твои холоднее стали струны
С B C B
Не хочу в горы, я хочу в дюны
Am C Em
Но как сообщил сегодня наш дозор
Am C Em
 
 
Intro:
C B
G|-2-----------0-----------------|---------0---------------------| SU
D--------------------|-2---4-------4-----------------| XX
| | | | | | | | | | | | | | | |
E--8-------x---x-------7-------x---x-----| G
B--8-------x---x-------7-------x---x-----| U
G9-9-------x---x-----8-8-------x---x-----| I
 
Вступление: Cm | Bb | Ab | Gm } 2 раза
Cm Bb
Иди ты с миром в мире к миру!
G#
Будь скорей, стремительнее всех
G
Сверхзвуковых кораблей
Cm Bb
 
 
Intro (play 2 times)
E5 E5 E5 E5 E5 E5 A5 A5 A5 A5 A5 A5
1)-7-7-7----------------------------- | -7-7-7---------------------------- |So
2)-------5--5---8-7-8--5---8-7-8--5-- | -------5--5---8-7-8--5---8-7-8--5- |lo
| | | | | | | | | | | | |
4)-2-----2--2----------2---2------2-- | -7-----7--7----------7---7------7- |Rh
5)-2-----2--2----------2---2------2-- | -7-----7--7----------7
Am F
В слезах парнишка
C E
Ему соврала я немножко
В слезах парнишка
Ему соврала я немножко
Сдала подружка
Должно быть ей сейчас так стыдно
 
C E
Да-да, давай, ага, пора
Am
Пара рира рара
C E Am
Знать пора честь, иметь совесть
C E
Смысл ждать до утра?
 
 
Am C
Молния, молния тайны из тайн.
F Dm
Краткая нежность хрупка что хрусталь.
Am E Am E7
Одна слеза радость, зачем другая печаль?
Am C
Ты рвалась ко мне бешено торопясь,
 
 
Intro :
E Hm G
2|-5---3---5-3---5---3-------3-5-5/7---5---3---5------|
3|-------4-----4-----------4---------------------4----|
E Hm G
2|-5---3---5-3---5---3-------5---5-----------5/7-3----|
3|-------4-----4-----------4---4---4---4--------------|
E Hm
 
Intro: Gm F#m variations x4
Verse 1:
Gm Dm
Помельче порежу морскую капусту
A Dm
Не знаю ты любишь ли, но будет вкусно.
Gm Dm
Никогда ведь не скажешь, придешь ли на вечер.
 
Gm Gm
Main riff --6-5-6-5-----6-6-5-6-5---------
--8-7-8-7-----8-8-7-8-7---------
--7-6-7-6-----7-7-6-7-6---------
--5-4-5-4-----5-5-4-5-4---------
--------------------------------
--------------------------------
Bass --------------------------------
 
Transcribed by Rosie Americanou, George Petrou
Intro: E---3--2---3--2--3-3--2-3-2-------
B---3--3---3--3--3-3--3-3-3-------
G---3--3---3--3--3-3--3-3-3-------
Dm Gm
Помельче порежу морскую капусту
A7 Dm
Не знаю ты любишь ли? но будет вкусно
Intro: 1:--17---------17--15--------------------------------
2:---------------------15--17--15--17--15--17-18-15
3:------14--15---------------------------------------
B A Dm
И всыпал снег не случайно,
B A
Это я заметал следы.
B A Dm
verse 1:
B A Dm
И всыпал снег не случайно,
B A
Это я заметал следы.
B A Dm
Он такой не сладкий
И совсем не красный,
 
 
Am F
Оставьте его мне! Е! Этого музыканта!
Am F
Оставьте его мне! Е!
Am F
Оставьте его мне! Е! Этого музыканта!
Am F
Оставьте его мне! Е!
 
 
Вот это крест...
Gm
Ты нацепил бананы,
Dm
Причёска у тебя модна.
Gm
С тобой такая же дама,
Dm
 
 
Intro: Riff1
e|--3--5--3--1--3--3--|--3--5--3--1--------|--1-----1--5--4--4--|--4--0--4--0--5----|
B------------3--3--|-----3----------------------|
Intro: Riff2 x2
Dm Am
e|--------1--0----|--------0--------|
B-----0--1--|
G-----------|
 
Verse:
__3__ __3__ __3__ __3__
G-----------------------5| GU
D-----------7|(7)-(7)-7-------7|(7)-(7)-7-------3| IT
A|-7--(7)-7-------7|(7)-(7)-7-------5|(5)--3--0---3-0-5|(5)--3--0---3-0--| AR
E|-5---3--0---3-0-5|(5)--3--0---3-0--------------|
| | | | | | / | | | | | | / | | | | | | / | | | | | | /
A-----------5|-----3--0---3-0-5|-----3--0---3-0-8| BA
 
Intro:
Am Am Em Em
B------------------------|
G----4-|---5-5-5-5-4---------4-|-----5-5-5-4-----|
D|---------5-7-------7-7-|-7---5---5-7-------7-7-|
A|-7-7-7-7---------------------------|
| | | | | | | | | | | | | | | | | | | | | | | | | | | | | | | |
A------|-------2-3-2-----------------| BA
Intro: Dm Am C G F
Dm Am
Вылакает малахита,
C
С косточки нежной,
Что наслаждает.
Dm Am
Куда развернуть твои 15 минут?
 
 
Intro: Dm Am C Am
Dm Am
Вылакает малахита,
C
С косточки нежной,
Что наслаждает.
Dm Am
Куда развернуть твои 15 минут?
 
 
A
От луча за моей спиной
D
Луна проникла лучом сомнений,
A
Что дорога в ночи одна
D
Моих таинственных объяснений
 
 
Intro: Am G Em Dm
Verse:
Am
Ба-бац!
G Em Dm
Открываешь глаза,
Am G
Клац!
 
 
Intro: Am G Em Dm
Am G
Ба-бац!
Em Dm
Открываешь глаза,
Am G
Клац!
Em Dm
 
intro:
e|--8-8-5-5-----------8--5----------8--5----------|
B|----------8-8-6--8----------6--8----------6-3--|
e|--8-8-5-5-----------8--5----8-13-12--13----------10--|
B|----------8-8-6--8-----------------------13--10------|
Verse1:
F Am
Если б ветром я бы в море стал
 
F Am Dm B
F Am
Если б ветром я бы в море стал
Dm B
Раскрошил бы чуть прибрежных скал
F Am
Положил бы пару кораблей вверх дном
Dm B
 
 
Am C F C
Где-то умоляет вас один, где-то дожидается другой
G F E Am
Все что вы мне сможете дарить непокой непокой
Am C G
Крошатся печально лепестки, ждет не дождется осень простудить
F E
Больше не разводятся мосты мы не спешим друг друга навестить
 
A E D
Нет Нет Нет Нет
A
Все что я слышал
E D
От твоего сердца
Нет Нет Нет
Тебя нет дома –
 
 
A E
Неужели тебе совсем одиноко сегодня?
D A
Неужели тебе мерещится я в темноте?
E
Разве печаль и разлука так тебе больны?
D A
Так, что мечтаешь вернуться ко мне?
 
 
Am G
Прошлый день, как листва
Dm F
Упавшая, увятшая ночь
Am G
Она умерла навсегда
Dm F
Никто не может ей помочь
 
Intro:
Am F
A|-0----------------------------------------------------------------
E----------------------1--------------------------------
| | | | | | | | | | | | | | | | |
G Am
A----------------------0--------------------------------
E|-3----------------------------------------------------------------
 
Cm7 Gm B F7
Растрепанные чувства, звуки
Cm7 D#
Гром грянул, ну а я его не слышу
Gm
Ничего не слышу по науке
Cm F
Нужно было побыстрей на воздух
 
 
E
День кончается так быстро,
A
Исчезает в тишине.
E
Вот луна в небе повисла,
A
Разлила свет по земле.
 
 
Вступление:
C G
D|----10-10-10-10-10-10-10-----9-9-9-9-9-9-9--
A|-8------------------------8----------------- x8
F Em
A|----8-8-8-8-8-8-8-----7-7-7-7-7-7-7--
E|-8-----------------8----------------- x4
C G
 
Вступление: Am
Am E
Влюбляться в моде снова, сразу, скоро
Am F
И мне бы не поверить, но, хей,
Em Dm
Балтийские глаза,
Em Dm
 
 
Am Em
1.Влюбляться в моде снова
Am Em
сразу и скоро,
Am Em
И мне бы не поверить,
Dm Em Dm
Но, хей, балтийские глаза,
 
 
intro: Am F(x4)
verse1:
Am F
Сюда стекается толпа, Прийти сюда я рад
Чтоб померзнуть часа два Средь своих бригад
Улыбки юные сверкают,кулак-вся в нем красота
Тебя здесь хорошо встречают, если валишь ты быка
chorus:
 
 
Вступление: Am F Dm Em 3-раза
Am
Ты пила меня жадно
E
Но было мало
Am E Am
Падал нектар и плавился на губах
E
 
 
Из к⁄ф "Обыкновенное чудо"
Dm B G B
Приходит день, приходит час,
Dm B G
Приходит миг, приходит срок
Bm E7
И рвется связь.
Gm D# C D#
 
 
C Em F G C
Завтра не так уж далеко, а совсем-совсем близко
Em F G C
Солнце, разорвавши горизонт, мчится быстро
F G
Вверх скорее космокораблей
F G
Там я дожидаюсь всех своих
 
 
E
Ищи меня там
Hm
В китайском квартале
F#m
В кофейнях на Невском
A
Мы оба устали
 
Рекомендуемый ритмический рисунок;
Перебор (щипок): Б3(21)3 – где Б — бас, а (21) - щипок 2-х струн одновременно
Бой: V^V*^ или Б^V*^ ( где Б - бас, а V* - вниз с глушением)
Бой из 7-ми касаний: Б V^ Б ^V^ или V V^V^V^, V V*^V^V*^ или (семь касаний, где Б - бас, а V* - вниз с глушением)
Текст может отличаться от оригинала
Вступление: Cm Ab Eb G7 – 2 раза
Cm Ab
Тобой закопаны
 
 
Intro (Гитара 1):
3:---------3---3---5---5-----------|
4:-5---5-0-3-3---3-5-5---5-5-5-5-0-| X 4 раза
5:-5---5-------------------5-5---0-|
Куплет: Бас:
2:-----0-------3-------5-----------|
3:---------1-----1-3-----3---------|
4:-3-----3-----------------3-3-3-х-|
 
Intro: C Gm (x2)
Verse1:
C Gm
Я хожу на посиделки темной ночью при луне,
Я играю в подгляделки, смотрю голеньких троллей.
Серый волк, начистив зубы, ищет ужин пожирней,
Еле слышны ваши трубы в тяжелом шепоте стеблей.
preChorus:
 
Hm Hsus2 Hm Hsus2
Ребята узнали - ты с ними не в доле
G
В нашей школе за такое били
Em A Em
Причем больно, не уронив ни слова
A Em
Не выбирав аккорда
 
 
Проигрыш: Am C F C
Am C
Все это больше не тайна и не секрет
F C E
Я получаю я получаю на тебя контрольный пакет
Я раскупорю все шахты раскрою все НЗ
Я размещаю заказы какие заблагорассудится мне
Am C
 
Dm
Мы просто проспали -
B A
Звёзды освоили без нас.
Dm
Мы просто проспали -
B
Что плакать то?
 
 
Вступление: Dm F C A
Dm F
Вечер дальше, дальше, дальше, утро близко, близко, близко,
C A
Нажимаю на педали, прости, киска.
Так не хлопают ресницы, хлоп-хлоп, lock-lock
Ночное радио вещает слегка тяжелый просто рок.
Вечер дальше, дальше, дальше, и без лишних остановок
 
 
INTRO: Am C Am C
Am
VERSE: Вечер дальше, дальше, дальше...
C
Утро близко, близко, близко...
G
Нажимаю на педали...
E E7
 
Dm B A
Ты думаешь оторваться есть где мне?
Dm B A
Расчетливо улыбаться бестие?
F
Каждому из нас дана
G
Где темная сторона,
 
 
Вступление: Em Em Em Em Am Em Am Em Am H
Em Am Em Am Em Am H
Em Am
1(0),2(0),1(0),1(2),1(5),1(3),1(2),1(3),1(2) - 3 раза
H
2(5),2(4)
Em Am
Вдыхаем цветы и на завтра прокиснем
 
Intro:
Em
E------------------------| GU
B|-5---------------------|-5---------------------| IT
G--4-5---------4-5-------| AR
| | | | | | | | | | | | | | | | | | | | | | | | | | | | | | | |
D------------------------| GU
A------------------------| IT
 
Dm A Gm
Гдe гдe гдe гдe гдe пpoпaлa гдe
Dm A Gm
Taм тaм тaм тapaм тa тaм тapaм
Dm A Gm
Лe лe лe лe лeди лeди лe
Dm A Gm
Ocтaлиcь дoгaдки мне ну a тeбе рубли
 
Intro
E5 A5 G5 B5 A5
e---------------------------------------------------------------
B----------------------------------------------------------------
G----------------------------------------------------------------
D---------2--------------7-------------5-------------------------
A---------2--------------7-------------5-------------------------
E--0---0-----0---5---5------5---3---3-----3---7---7---5---5------
E5 G5 A5
Рождественских снежинок нет.
G A E A5 G5 A5
Такая вот погода здесь.
E5 G5 A5
И кто-то жадно берет за ворот.
G A E |
Куда идти? - Хоть в лисьи норы лезть.
 
 
Bm Em G D 3 р
Bm Em G D
Ржавые струны, ломкий янтарь.
Bm Em G D
Ты думал гореть, а тут надо нырять.
Bm Em G D
Мохнатым туманом завязали глаза.
Bm Em G D
 
 
Вступление: Am C D Am - 3раза
Am C
Близится рассвет
D G
Я сменяю ночной туалет
Am C
Я проснулся вчера
D G
 
F E Am F E
Свидетелей не убирают.
F E Am
Их кормят, лелеют, они много знают –
F E
Свидетели.
F C F C
Свидетели расскажут нам однажды,
 
Am H
На северном полюсе
Dm
Разлиты до соболей,
Am Em
Раздеты до пояса,
Dm Em
Затаились отважные.
 
Вступ: Dm Am C Em B A E E - 2 раза
Dm Am Dm Am G
Разом бьет наверное
C Dm
Сиамские сердца
Am Dm
Город что-то ждет
Am Dm
 
Intro: E A Hm Hm X2
Freetime:
E A
Дни гады уходят в такую то даль
Hm Hm
Мне от вчера ничего не жаль и
E A
Я знаю то что никто не знает
 
C# C#
раздавленные солнцем, укушены судьбой,
C# C# C#
кому-то некогда больше не лечь рядом со мной...
C# C# C#
планеты все свихнулись, но только не моя,
C# C# E F#
не будет жалко континента мне, ведь это - не земля.
 
 
C Am Em Em
Лоскутками разрывались губы
C Am Em Em
Кровь мешали с соком и со льдом
C Am Em Em
Шелком затянули вены в трубы
C Am Em Em
Обычный вечер, обычный дом
 
Intro:
C E Am Am
G|-10--------------|-9------/9-9-7-9-|-7---------------|-----------------|
D|-----------------|-----------------|---10------------|------------10-10|
| | | | | | | | | | | | | | | | | | | | | | | | | | | | | | | |
|-3-3-3-3-3-3-3-3-|-7-7-7-7-7-7-7-7-|-----------------|-----------------|
E|-----------------|-----------------|-5-5-5-5-5-5---5-|-5-5---5-5-5---5-|
Dm
 
intro: G D Am
G
и очнешься,
D Am
и узнаешь-
C Am
растерявшие блокноты,
G D
 
 
Gm Cm
Ты смеешься, дорогая,
D Gm
Ты смеешься, ангел мой.
G7 Cm
И тоску свою скрывая,
A D
Сам смеюсь я над собой.
 
Intro: F E D A
F E
тогда ночью все ясно,
F E
если ты мне молчишь...
F E
мне без слов твоих видно,
F
 
 
Intro: Gm Cm Dm Gm x4
Три, два,
Gm Cm
Разбитое стекло
F
Если мячи не попадают,
Bb
Невольно пролетая.
Intro:
A
Но из тех, кто смотрит,
Em
Кто смотрит на звезды
Bm E
С другой стороны...
A
Вступление: Bm F# A E
Bm F#
Братка приходит с моря, привозит жвачку.
A Bm F#
Бобины мотают пленку, километры музон.
D E A
Езжает, визжит тачка! Еще не было штрафов,
Bm F#
 
 
Hm G A
Страху нет нет страху-ху
Я по воде иду, а не по льду
Ты полулежа улыбаешься
D F#
Прищуриваешься пристреливаешься
Ты думаешь что думаешь а думаешь ли ты
На горизонте стало видно отблеск красоты
 
Вступление: B C B C B C B C
E A
Шофера найдешь своего
E A
Утром мертвым совсем
F#m A
Кто закроет тебе молнию сзади
E A
 
Intro: Em G C (x2)
Vеrsе1:
Em G C Em G C
Так страшно умирать, оставь мне хоть глоток,
Стакан застывших глаз, оставь мне пирожок.
Такие злые все, и добрый только я,
Какой суровый день, но мы одна семья.
Noise: Em G C (x2)
 
Проигрыш: Dm Gm | C7 F | B E | A
Am | G
Am G Am G Am G Am G
Ты сказала не случайно Хочешь ты меня орально
Почему бы нам с тобою Не уйти в другую плоскость
Ты сказала не случайно Хочешь ты меня орально
Почему бы нам с тобою Не уйти в другую плоскость
Dm Gm C7 F
 
 
Интро:
Am G F Em
Am Em F Em
1.
Am Em F
Эти новости здесь никогда не закончатся,
F Em
Твои повести не донапишутся.
 
 
Интро:
Am G* F G
Am G* F G
1.
Am G*
Эти новости здесь никогда не закончатся,
F G
Твои повести нет да напишутся.
 
 
C#m A E H
Вспоминая лето, лето - колокольчик
C#m A E H
Мальчик-обманщик да-да-да-да-да
C#m A E H
В будке телефонов как в татуировках.
A F#m H A H E
Где я, и ты, и плюс, и все, равное Вселенной.
 
 
Am Am
завтра я приеду, но звонить не собираюсь,
Am Am
с зоной телефона - все в порядке, я не спорю....
Am
но по подземельям,
Am
и с 12 до утров,
 
G#m
Ю-юному мне
F# E
Fact и Мумий Тролль
D# G#m
3 раза о-еее
F# E
2-0-0-0! Чувствуешь? аха аха!
 
Intro: Am, C, D, E
Am Em
Эй вы там в рок центре
Am Em
Уездного города Л.
D
Кто штурмует рок за роком
F G
 
 
Hm E Em
Утекай, в подворотне нас ждет маньяк
Em Hm
Хочет нас посадить на крючок
E Em
Красавицы уже лишились своих чар
Em Hm
Машины в парк, и все гангстеры спят
 
Вступление: C
C
Ты просыпаешься рано утром, клокочет море пеной.
Em
Это фотообои и ты дышишь в стену.
Настроение нормальное, думаешь: Турция.
Поливаешь настурции.
Припев:
 
E F E F E F E F У каждой красотки, у красотки каждой E F E F E У каждой красотки, у красотки к
 
Am G F Dm
Ты такой хищник все счеты сводишь лично
Am E Am E
Сам себе считаешь сам себя решаешь
Все было бы отлично но раны то зияют
Так глубоко что слезы чрез раны вытекают
Жаждою стремимы страстею полны мы
Эти клыки хищник режут нам сердце
 
intro:Em D C B
verse1:
Em Am Em Am Em
Мы настигли ее
Am Em Am
Через сто световых лет
G D Em
Опорожнили тюбик эт
 
Intro: Am, G, F, Em
Em
Мы настигли ее
Через сто световых лет,
G Em C D
Опорожнили тюбиков не на один обед.
Em
И не один парсек
 
 
Intro:
Em Bm G G x times
 
Verse:
Em Bm
Там, где растет дикая клубника
Em Bm
Там, где растет дикий чеснок
 
Вступ: Em A G F# Em
Em H
Шама мама маны все знают
A
Мне бы разыскать где зимует моя птица
Em H
Автомобибильно туда не доехать
A
 
Intro: Em A G F# Em
Em H
Шама мама маны все знают
A
Мне бы разыскать где зимует моя птица
Em H
Автомобибильно туда не доехать
A
 
 
Intro: Am Em (4 раза)
Am C
Уходит день останься лето
Em Am
Останься лето моей женой
Am C
Приятно в море лунного света
Em Am
 
Gm Cm7 F Dm
Поцелуями нежными ли, нижними ли,
A# C D#
Это будет не трудно, это по любви
Gm Cm7 F A#
Караванами, пароходами я к тебе прорвусь mon amie
Gm Cm7 F A#
Рациями, факсами, телефонами пока завязаны мы
 
В принципе песню можно сыграть и попроще, открытыми аккордами на тон выше:
Gm = Am
Cm = Dm
F = G
B = C
B/A = C/H
Eb = F
C = D
 
 
Intro: Cm G F (x2)
Verse1:
Cm G F
Эхом гонга в сердце сумерек
Cm G F
Отозвалось начало новых сцен.
Cm G F G
Мышь разбила крыло о фонарный столб,
 
Am G#m Am Am G#m Am
Голубки сели, голубки плыли,
Am G#m Am Am G#m Am
В этажах зданий, вили и любили.
G F# G G F# G
Проводов роки, стилетами сверкнут,
Am G#m Am Am G#m Am
Холодные зубы на порхающем бюсте.
 
 
Hm F#m
Ты ведь розами пахнешь,
A E
У меня на них аллергия,
Gm D
Но не страшно...
F#
Задыхаться так стильно.
 
Проигрыш: Hm E G A > 2 раза
Hm E A D
Мы запаяли время в янтарь
Hm E A F#
Музей не примет только за дешево на сувениры
Hm E D
Жизнь обывала самым ценным украшеньем
A E F#