Аккорды к песням для гитары

«Парк Горького» аккорды

Dm C
I'm on a side'o' canyon road
Dm C
An' people drive and stare
Dm C
I'm eating dust inside my throat
Dm Bb C
Away from the face I wouldn't wear
 
 
Вся песня на аккорды Dm A# Gm Am7/C
(Если играть квинтами, то последний аккорд A5)
Getting on a phone with a busy line
Talking on a phone and loosing my mind
Never never never never realise
It feels so far,like a million miles
Give me give me give me give me little hand
Just listen to your heart,dont consider it
 
Intro:
e-8---7----------------0------------8-7-------------0-----------------
H---5---5-----0-1--3-----3--------0-----5-----0-1-3---3-------0-------
G-----------2--------2---------1------------2-------------------1-----
D-7-------3--------0----------------7-----3-------0---------4---------
A----------------------------2----------------------------2-----------
E--------------------------0----------------------------0-------------
Verse:
 
riff 1 :
----------------------------------------|
|-------4-----4-----4-----4-------3-----3-------1-3-|
|-----5-----5-----5-----5-------3-----3-----3-4-----| 4 times
|---5-----5-----5-----5-------3-----3-----3---------|
|-3-------------------------1-----------------------|
----------------------------------------|
Cm Fm G# G
 
проигрыш:
C Fmaj7 D5sus2 G (fill 1)
C Fmaj7 D5sus2 G
примечание:
C и Fmaj7 играть, отпуская 2 струну
D5sus2
III fret
e|o---|---|---|---|
 
Вступление
E||--0--------------3----|--0---------2---------|--0--------------3----|
B|------0----|-------0---------0----------1----|
G|-0----------0----------0---------|
D||-------2-------------------------|-------2--------------|
A-----------|--3-------------------|
E||--0-----------------------------------------|
--0---------2---------|--0--------------3----|--0---------2---------|
 
Em H7 G
Lonelyness is my only guest
Dm E Am Am/G
Who visits me alone at night
F
When it comes I light two candles
Em
Just the way it was
 
(Intro)
N.H.
e|-0---0-2---0---|
B|---0-----0-----|
G----|
D-(7)|
A----|
E----|
 
intro
ПРОИГРЫШ
Fill 1
C(-5)
Ты несла свою Беду
Dsus2/F# F
По весеннему, по льду
C(-5) Dsus2/F# F G
 
Em
Ты несла свою Беду
H7 Em
По весеннему, по льду:
E7 Am
Обломился лед, душа оборвалася,
H7
Камнем под воду пошла,
 
 
Dm С
В комнате….остался только звук
Gm
Прикосновение рук…
A
Остывшее тепло
В памяти…..осталась только тень
В окне вчерашний день…