Аккорды к песням для гитары

«Приключения Электроников» аккорды

Вступление:
Dm
A|-----3-3-4-5---3-5-| \
E|-5-5---------5-----| / > 4 раза
A|-----3-3-4-5-|
E|-5-5---------|
Dm
Двадцать ноль-ноль,
 
Вступление: C5 F5 G5 C5
C F
В центре города большого,
C G
Где травинка не растет
C F
Жил поэт - волшебник слова,
G C
 
 
A
Вычислить путь звезды
Dm G
И развести сады
C F
И укротить тайфун
Hm E
Все может магия
 
 
Вступление:
Cm Fm Cm G
G||-5-------------------5-------------
D||----3-5--3-6--3-8-6-----3-5--5-----(2 раза)
A---------5---
Cm Fm
Вновь о том, как день уходит с земли
G Cm
 
INTRO (2 раза):
E---------------------------------------|
H---------------------------------------|
G|--5------------------------------5----------------|
D|-------5-6----5--6----5--8--6---------5-6----8-5--|
A---------------------------------------|
E---------------------------------------|
КУПЛЕТ 1:
 
Проигрыш:
G
У-Е-Е!
C
У-Е-Е!
У-Е-Е!
У-Е-Е!
Куплет 1:
 
Hm
Двадцать ноль-ноль,
G (III)
Все давно ушли домой лишь она
Hm
Не спеша накинет плащ и одна,
A(V) G
Как всегда свой путь начнет
 
 
Am
На трибунах становится тише,
A7 Dm
Тает быстрое время чудес.
E F
До свиданья, наш ласковый Ми-и-и-ша,
Dm E Am
Возвращайся в свой сказочный лес.
 
Ла-ла-ла...... (Под аккорды Dm Am E Am
Dm Am E Am E)
//Андрюха Шабаев
Am
Если с другом вышел в путь
Если с другом вышел в путь
E
Веселей дорога
 
 
C5 D5 G
С любовью встретиться проблема трудная
C5 F A#5 F
Планета вертится круглая круглая
C5 E#5 A#5 G
Летит планета вдаль сквозь суматоху дней
C5 D#5 D5
Нелегко нелегко полюбить на ней
 
 
Am E Am E
В юном месяце апреле в старом парке тает снег
F Dm Gm A
И веселые качели начинают свой разбег
Am E A7 Dm
Позабыто все на свете! Сердце замерло в груди!
F Dm E Am
Только небо, только ветер, только радость впереди.
 
 
Вступление: Cm
Cm D#
Осенью в дождливый серый день
Fm G Cm
Пробежал по городу Олень
G# B D#
Он бежал по гулкой мостовой
Fm G# G
 
 
Вступление:
G#m D#m E F#
e||--------------|--------------|--------------|--------------|
H||--------------|--------------|--------------|--------------|
G||--------------|--------------|--------------|--------------|
D||---9--8--6----|-----------8--|---9--8--6----|-----------8--|
A||------------9-|--9--9-6-9----|------------9-|--9--9-6-9----|
E||--------------|--------------|--------------|--------------|
 
Am
Полный ход и снова волны
G F
Уплывают вдаль за кормой
Am
Прочь тревоги англичанка
G F
Возвращайся с богом домой
 
 
E----------------------------------|
B||----1--------------1-4-2------------1-------------------|
G|---1--------------1--0--------0--1-----------|
D||---------3----------------------------------------------|
A----------------------------------|
E----------------------------------|
E|-------1----3----1---------------------------|
B|-----1-----------------4-----------2-1-------|
 
F#m
Мимо белого яблока луны
E A
Мимо красного яблока заката
Hm F#m
Облака из неведомой страны
C# F#m
К нам спешат и опять бегут куда-то
 
 
Ла-ла-ла (Под аккорды Dm Am E Am
Dm Am E Am E)
Am
Если с другом вышел в путь
Если с другом вышел в путь
E
Веселей дорога
Без друзей меня чуть чуть
 
Riff 1 |Riff 2| Riff 3 | Riff 4 | Riff 5 | Riff 6
1--x---x--|x---x-|--x---x---x-|--x---x-----|--x---x-|--x---x-
2--x---x--|x---x-|--x---x---x-|--x---x-----|--x---x-|--x---x-
3--x---7--|x---2-|--x---x---5-|--x---7-----|--x---5-|--x---5-
4--7---7--|2---2-|--3---5---5-|--3---7---2-|--3---5-|--5---5-
5--7---5--|2---0-|--3---5---3-|--3---5---2-|--3---3-|--5---3-
6--5------|0-----|--1---3-----|--1-------0-|--1-----|--3-----
b|-------|
 
Hm F#
Слышу голос из Прекрасного Далека,
F# Hm
Голос утренний в серебрянной росе.
G A D
Слышу голос - и манящая дорога.
D G G7 F#
Кружит голову, как в детстве карусель.
 
 
Am Dm
Слышу голос из прекрасного далека
E Am
Голос утрений в серебряной росе
Dm G C
Слышу голос и манящая дорога
Dm E
Кружит голову как в детстве карусель
 
 
G5
Синий синий иний
Синий синий иний
C5
Синий синий иний
Синий синий иний
D5
Синий синий иний
 
 
Intro:
Guitar1:
E:------| ------|:E
H:------| ------|:H
G:------| ------|:G
D:|---5-6-6-5-6-5---| ------|:D
A:|-7---0---------7-| |---3-5-5-3-3-3---|:A
E:------| |-5-------------5-|:E
 
Am
Земля в иллюминаторе,
F
Земля в иллюминаторе,
Dm E
Земля в иллюминаторе видна.
Am
Как сын грустит о матери,
 
 
Вступление: C | G | Am | Em | Am
C | G | Am | Am | Dm | Em | Am } 2 раза
Am Am7/G
Земля в иллюминаторе, земля в иллюминаторе,
F7 G
Земля в иллюминаторе видна...
Dm7 Dm6 Dm
Как сын грустит о матери, как сын грустит о матери,