Аккорды к песням для гитары

«Психея» аккорды

D H
Первый, самый первый раз,
Вдохнув несмело
D H
Кожи бледный аромат,
Теряю мир в догадках.
D
Пьяный, страшный ветер
 
 
G B G
Сползает вниз слеза плавно по стенке сосуда
F
Не так уж важно кто ее бросил
G B G
Всего лишь миг и нас с тобой уже больше не будет
F
И даже осень
 
 
G|-------|---------|---------|------------------|---------|---------|--------
D|-2--2х-|-2-4--4х-|-4-5--5х-|-5-4--4х--4-2--2х-|-2-4--4х-|-4-5--5х-|-4-2--4х-
A|----2х-|------4х-|------5х-|------4х-------2х-|------4х-|------5х-|------4х-
E|----0х-|------2х-|------3х-|------2х-------0х-|------2х-|------3х-|------2х-
"х" здесь, как все уже наверное догадались, - это глушение.
G|-------|--------|--------|----------------|--------|--------|-------
D|-2-4-2-|-2-4
 
E H
Стоишь одна мокнешь под дождем
A
Ночь не спала мечтала об одном
Как вы в кино целуетесь вдвоем
И все вокруг сверкает ярким светом
E H
Но стрелок бег быстрей-быстрей
 
 
E|---------------------------------------------------------------|
H|---------------------------------------------------------------|
G|---------------------------------------------------------------|
A|----6----6-5--------------------6------6-5-----------8-8/1312-|
D|-3----3---------6---3/43---3-----3-----------6--5(6)----------|
E|-------------4----------------------------4(6)-----------------|
Riff:
E|--------------------------------------------------
 
Вступление: C Em Am F
C Em Am F
От меня правда закутавшись в белую шаль
Прячется в угол старой картонной коробки
Навсегда хочешь скотчем хочешь гвоздями
Удержи меня здесь, удержи меня умоляю
C
В зеркалах вонючих потных и лживых
 
 
Em
Я самодостаточное существо
C
Я панк по своей породе
Я сам по себе я не большинство
Я не согласен по своей природе
Что посеешь то и пожнешь
Я типичная особь человеческой расы
 
 
Вступление:
C#||--------------------------|----------------------------|
G#||--------------------------|----------------------------|
E ||--------------------------|----------------------------|
B ||--0----1--0-0--1-1--3--1--|--0----1--0-0-------5*------|
F#||--0----1--0-0--1-1--3--1--|--0----1--0-0--5*-5*---5*-5*|
B ||--0----1--0-0--1-1--3--1--|--0----1--0-0---------------|
C#||-------------|
 
Am C F
Дотронся глазами чужого запястья,
Am C F
Под шум океана не страшно увидеть
Am
Плач
C
Белого
 
 
G A G A G
Я ослаб почти без сил спасать себя я не просил
A G F# Hm
Дожить до снега под дождем сложней всего сложней того
Того кто правильный герой он знает код и он с тобой
Разделит солнце пополам вдруг треснет мир по старым швам
Случайный мальчик под окном уронит бомбу а потом
Прочтут в газетах о другом
 
 
Что то типа вступления:
D|--7-5-7--7-5-7--3-3-|
A|--7-5-7--7-5-7--3-3-| 2 раза
E|--5-3-5--5-3-5--1-1-|/
D|--7-5-7--7-5-7--3-3-5--7-5-7--7-5-7--3-3--7--8-8-8-8-7|
A|--7-5-7--7-5-7--3-3-5--7-5-7--7-5-7--3-3--7--8-8-8-8-7|
E|--5-3-5--5-3-5--1-1-3--5-3-5--5-3-5--1-1--5--6-6-6-6-5|
Am
 
 
Тишина
Am G
Наблюдаю свет из окон
F E
Растворяюсь в блесках теней
Клею картины из разбитых стекол
Составляю жизнь их прожитых дней
Cm Dm
 
 
G D
Расплылось перед глазами,
F# Hm
И стекло по ложке чайной.
G D
Испарилось и случайно,
F# Hm
Забрало меня с собой.