Аккорды к песням для гитары

«Руки Вверх» аккорды

Main Theme Riff:
F5 G5 A5
E|-1-1-1-1-1-----------------1-|
B1-0-|-0-0-0-0-0-2>3-1-|-1-0-1-0-1-0-1-|-1-0-1-0-1-0---|
*Играем Main Theme Riff 2 раза
F5 G5
Ты сегодня взрослее стала
C5 A5
 
Припев: 2 р.
F G
Забирай меня скорей
Am
Увози за сто морей
И целуй меня везде
F
Восемнадцать мне уже
 
 
Am Dm
Ай-яй-яй, девчонка.
Дальше аккорды идут также, в таком же порядке:Am, Dm, C, E....
C E
Где взяла такие ножки?
Ай-яй-яй девчонка.
Топай,топай по дорожке.
Ай-яй-яй мальчишки
 
 
1-|-0---0---0-----0-----0-----0-------|
2-|-0---0---0---6---|-3---3---3---6---|-1---1---1---3---|-3---3---3---3-6-|
3-|-5---5---5-------|-4---4---4-------|-2---2---2-------|-4---4---4-------|
4-|---7---7---7-----|---5---5---5-----|---3---3---3-----|---5---5---5-----|
5-------------------------|
6-------------------------|
1-|-0---0---0-----0-----0-----0---8-7-----|
2-|-0---0---0---6---|-3---3---3---6---|-1---1---1---3---|-3---3---3-------8-6-|
 
Версия 1: Em D C H7
Версия 2: Am Em F G
Версия 3: Am G F Em
Версия 4: Em Hm C Am D
Версия 5: Am Em F Em Em(?) G G(?)
Вступление
1: --------------------------------------------------------------------
2: --------------------------------------------------------------------
 
G Cm
Тихо светит луна.
Hb
Там вдали за рекою,
G
По широкой тропе
Cm G
Проскакали ковбои.
 
 
Am
Тихо светит луна.
Dm
Там вдали за рекою,
Em
По широкой тропе
Am
Проскакали ковбои.
 
 
Am C G
Я не могу тебе помочь,
F Am
Меня ласкай ты - не ласкай.
Гони меня скорее прочь,
Меня к себе не подпускай.
Ты не проси, не умоляй,
Любовь закончилась давно.
 
 
Am
Давай все закончим
F-5
Без слез и истерик.
Dm
Все чувства разбились
Волною о берег
Am
 
 
Am
Давай все закончим, без слез и истерик,
Dm
Все чувства разбились, волною о берег.
Am
Пусть в прошлом все злые, слова остаются,
F E
Мы стали чужие, устав друг от друга,
 
 
1|---8-7-5-----------7-----5-4-7-5-----
2|---------5-6-----------------------
BASS (на припев(вступление))
5|--3-2-0-----2-0--------------------------
6|--------0-1-----4-7-8--------------------
Лучше играть на звездах, но и так неплохо
I куплет:
Am Dm
 
Припев:
Am Dm E Am
В омут твоих глаз снова упаду,
Полюбил тебя на свою беду.
И не убежать от моей любви,
Все чем я живу это только ты.
1 куплет:
Am Dm
 
 
Припев(вступление):
1|---3-2-0-----------2-----2-3-------
2|---------0-1---------5-4-------0---
3----2-------------0---0-
4--2---2-----------------
50-----------------------
6|---0---------------2-------0-------
1|---3-2-0-----------2-----2-0-------
 
Am E Am E (стандартный ритм)
Сегодня в клубе ночью будут танцы
Приедут гости даже иностранцы
Там очень много девченок отдыхает
Но мне нельзя туда меня там точно знают
И встретил я восточную царицу
В нее успел беспамяти влюбиться
Она меня к себе не подпускала
 
 
Em Am H7 Em
I. Когда смотрю в твои глаза
Am D G
Я забываю обо всем
Am H7 Em
Пленительная их краса
Am H7
Чарует больше с каждым днем.
 
Am G F
Мы с тобой знакомы много лет
Am G F G
Но тебя со мною рядом нет
Dm G C F
Ты как всегда, мимо пройдя,
Dm Dm/F E
Сухо мне скажешь "привет!"
 
 
-0-----0-------------------------------0---------
---3-1---3--3-1-0-3-1---1-0----1--0--------------
----------------------------2-------2-----1-2----
-------------------------------------------------
-------------------------------------------------
-------------------------------------------------
Припев:
Am Dm G C
 
Em
Солнышком, была ты ясным солнышком
Am Hm Em
Ушла, исчезла и остались тучи без тебя
Em
Самою, красивою и доброю
Am Hm Em
Ты навсегда останешься такою для меня.
 
 
Em
Солнышком, была ты ясным солнышком
Am D Em
Ушла, исчезла и остались тучи без тебя
Em
Самою, красивою и доброю
Am D Em
Ты навсегда останешься такою для меня.
 
 
Am
1.Солнышком,была ты ясным солнышком,
Dm E Am
Ушла, исчезла и остались тучи без тебя
Самою красивою и доброю
Dm E Am
Ты навсегда останешься такою для меня.
Dm G C Am
 
 
G#m, C#m
G#m E
Ты осталась дома, ты сидишь одна,
C#m
Ни друзей, ни подруг, ты никому не нужна.
F#
Даже лучший друг больше не придет,
H F# G#m
 
 
I куплет
Am Dm E
Говорила, что меня не видела.
Am Dm E
Обнимала и тихо ненавидела.
Am Dm E
Обещала быть моей любимою,
Am Dm E
 
 
Dm
Если ты разлюбила и все забыла,
Am
Лучше меня не зови,
G
Не зови,
Gm
Не зови...
 
 
Am C
Снова одна ночью без сна,
Dm F
Завтра с утра ты выйдешь замуж.
Am C
Так мало лет, а счастья нет
Dm F
Скоро рассвет, а ты рыдаешь.
 
 
Вступление: Hm Gm A Hm (x2)
Hm Gm
1. Я ничего о тебе не знал
A Hm
Всю свою жизнь я тебя искал
Hm Gm
Верил, что ты ждала меня
A Hm
 
 
Вступление: Dm Gm C F# (x2)
Dm Gm
1. Я ничего о тебе не знал
C F#
Всю свою жизнь я тебя искал
Hm F
Верил, что ты ждала меня
Gm Em
 
 
Бступление(проигрывается несколько раз):
4|-(4)(4)-(4)------------------------------(4)(4)-(4)---------------------------
5|--2--2---2-(4)(4)-(4)(5)(5)-(5)(2)(2)-(2)-2--2---2-(4)(4)-(4)(5)(5)-(5)(7)(7)-
6-2--2---2--3--3---3--0--0---0------------2--2---2--3--3---3--5--5--
Hm
(R) Крошка моя я по тебе скучаю
Em G
Я от тебя письма не получаю
 
Cm, Hb, Gm, Cm
Cm Hb
Как-то у меня собрались друзья,
Gm Cm
Только ты одна не пришла.
В день рождения приглашения
Получала ты - точно знаю я.
Что же не пришла? Может не смогла?
 
 
Припев:
Hm G
маленькие девочки в первый раз влюбляются
A F#m
меленькие девочки каждый ошибается
Hm G
меленькие девочки ето не счтается
A F#
 
 
Am Dm
Звал тебя русалкой, нежной ласковою, синеглазою.
G C
И в глазах твоих тонул так часто я, так часто я.
Am Dm
Почему, скажи, у нас все расклеилось, развелось,
F E
И на что, малыш, с тобой мы надеялись?
 
 
Припев: х2
Am E
На меня ты не сердись, нара, нара, на, на.
Am E
Уходить не торопись, нара, нара, на, на.
Am E
На секунду задержись, нара, нара, на, на.
Am E Am
 
 
I куплет
Am
Этот теплый вечер
Dm E
Был таким счастливым
G
Только все испортил
C A
 
 
Em C
Видишь меня в последний раз,
Am D
Я ухожу, с тобой прощаясь.
Пусть вся любовь, что была у нас,
В сердце твоем не угасает.
Ты не изменишь, не предашь
И не соврешь, про то, что было.
 
 
Em
Почему же так темно – просто я закрыл глаза,
D6
И не вижу ничего, только чувствую тебя,
C
Ты дрожишь в моих руках - потеряла ты покой,
B7
Тебя крепче обниму - ты не бойся , я с тобой.
 
 
Am C Am
Не забуду я тебя никогда
Am C Am
И глаз твоих полных слез
Am Dm E Am
Провожала ты тогда
Am Dm E Am
В тусклом свете серебряных звезд
 
 
Am Dm
Все говорят, ты некрасива,
G C
И не похожа на других.
Am Dm G
Пряча глаза, проходишь мимо одноклассников своих.
Am Dm
Слышишь, смеются над тобою
 
 
Am D
Ты непутевая, ты любовь моя.
Em
В чем-то глупая, неприступная.
Am D
Ты избалованная, заколдованная,
Em
Сумасшедшая, но любимая моя.
 
 
Am
А куда сегодня еду я?
Dm
А чтоб найти сегодня тебя.
C
А со мной едет лучший друг,
E
Нам хочется найти подруг.
 
 
Am
А куда сегодня еду я?
Dm
А чтоб найти сегодня тебя.
C
А со мной едет лучший друг,
E
Нам хочется найти подруг.
 
 
Em D
(1) Мягкий шелк постыней
C G H7
Мне напомнит нежность руки твоей.
Em D
Мне не спиться опять
C G H7
В эту ночь могу я лишь мечтать.
 
 
Intro
1-------------------------------------------------------------
2|---14-12-11------13-11-10----------------------14-12-11-----13-11-10----
3|-10---------10--8---------8-6--8-10-11-10-8-10---------10-8---------8-6-
4-------------------------------------------------------------
5-------------------------------------------------------------
6-------------------------------------------------------------
1--------------------------------------------20-21-23-20-
 
Am
Остаюсь я один, даже сердце не бьется,
G
А обида в душе навсегда остается.
F
И только голубем белым к тебе улетают
E
Все приветы мои адресата не знают.
 
 
Am Fm
Вечером теплым брожу один
G
Ты не сможешь вернуть ее
Em
Шепчет мне нежно дождь
Знаю что встречу тебя с другим,
Лучше это была б не ты ,но рядом с ним ты идешь
 
 
Соло 1,в начале.
e----------------------------------------------------
h-12^14--12--12--14^12-------------------------------
g---------------------13^14-16-14-11-9-7-16-14-11-9-7
d----------------------------------------------------
a----------------------------------------------------
e----------------------------------------------------
Можно сыграть его по другому.
 
Am.
I куплет:
Am Em
Впервые засыпать сегодня без тебя,
Em Am
Хотел тебя обнять,но комната пуста.
Am Em
Мне остается ждать и слушать тишину,
 
 
C G
Я знаю - ты готова
D Am
Со мной помчаться снова
Туда, где будут танцы,
Танцы до утра.
Ты, как всегда, согласна,
И мне предельно ясно,
 
 
Вступление: Hm G A F#m Hm G A F#
I куплет
Hm G
Мир заполнен тобой, день и ночь тобой полны.
A F#m
Со светом твоим меркнет свет солнца и луны.
Hm G
Твои нежные губы, твой шикарный наряд,
 
 
Am
Ты на прощание мне всего лишь пару слов
Em
Успела сказать,
Am
Что улетаешь ты куда-то далеко,
G
Но будешь очень долго ждать.
 
 
Am
Ты нежность цветов,
Em
Забытая тайна
G
Я буду готов
C E
С тобой оказаться случайно
 
 
Вступление: Fm Bb C Fm Bb C
Fm
1. Мягкий, мягкий снег
Bbm/c Bbm7
На моем окне,
C7
Умирая, нежно таял,
Fm
 
 
Am
Не стучись мне в окна, у дверей не стой.
Em
Под дождем промокла, прошедшая любовь.
Am
Уходи не слушай, все что говорю,
Em
Я и сам не знаю, люблю или не люблю.
 
 
Dm(V),Am(V),G(III),Gm,Am(V) - x2
I куплет:
Dm(V) Am(V) Dm(V)
Все его любили, а потом забыли,
D(V) Gm
На земле остался он один.
Gm Am(V) Dm(V)
И идет по склонам, по траве зеленой,
 
 
Подобрал в d-moll, но играю в a-moll.
Am E Am
Все его любили, а потом забыли,
A7 Dm
На земле остался он один.
Dm Am
И идет по склонам, по траве зеленой,
E Am A7
 
 
Вступление: Am (x4)
I куплет:
Am Dm E
Что ж так веселитесь, вам бы так попасть в беду.
Am Dm G
У своей любимой, погулять на свадьбе,
Dm G C Am
Да еще на свадьбе, свадьбе с новосельем
 
 
I куплет
Am
Почему ты обходишь вновь меня стороной?
G
Почему избегаешь снова встречи со мной?
F
Ты пойми мне неважно, сколько было парней
F E
 
 
Am Dm
Мы двое с тобой, мы -- не разлей вода.
Е Am
У нас два разных пути и разная судьба.
Am Dm
А ты простой студент, а я простой пацан,
F E
И все завидуют нам таким простым друзьям.
 
 
Проигрыш: Em Em
Em C
Видишь меня в последний раз.
Am D
Я ухожу с тобой прощаясь.
Пусть вся любовь, что была y нас
В сердце твоем не угасает.
Ты не изменишь, не предашь
 
 
Hm Em
(1) Видишь меня в последний раз.
Am D
Я ухожу с тобой прощаясь.
Пусть вся любовь, что была y нас
В сердце твоем не угасает.
Ты не изменишь, не предашь
И не соврешь про то, что было.
 
 
Am
Не прячь свои глаза,
Dm E
Посмотри, что у нас с тобой.
Am Dm
Все не так легко и уже не смешно,
E
Как тебе казалось.
 
 
Am
Мне любить тебя так сложно,
Позабыть, себе дороже.
G
Удивить тебя мне нечем,
Em
Снова не возможно долгий вечер.
Am
 
 
Em C
Видишь меня в последний раз.
Am D
Я ухожу с тобой прощаясь.
Пусть вся любовь, что была y нас
В сердце твоем не угасает
Ты не изменишь, не предашь
И не соврешь про то, что было.
 
 
Am F
Не прячь свои глаза,
G(3) E
Посмотри, что у нас с тобой осталось.
Все не так легко
И уже не смешно,как тебе казалось.
Ты мне расскажи
Кто тебя целует, кто ласкает,
 
 
F G Am
У реки девчонка горевала,
по реке ночной цветочек плыл.
Ведь девчонке нужно очень ма-а-ло,
нужно чтобы кто-нибудь ее любил.
Припев.
G F Am
Да любовь-любовь,она така-а-я,
 
 
припев и аккорды к припеву подходят к куплетам
вообщем так:
Am Am (мизинец на 2 струну 3его лада)
Уходи если сможешь,
Am ^^
Стань опять одинокой
Em Em (мизинец на 2 струну 3его лада)
Забирай все что хочешь,
 
 
Это вступление и играется в припеве
A#m
1:----9----9~8----6----4------
2:---6----6------4----2-2-----
3:--6----6------5----3--------
4:-8----8------6----4---------
5:----------------------------
6:----------------------------
 
Припев:
Am G
Что? Что мне делать с тобою?
G F
Ты моя радость и горе
F E
Сделала мне очень больно.
Что? Что мне делать с тобою?
 
 
Am Dm
Ветер шумит негромко
G C E
Листва шелестит в ответ
Am Dm
Идет неспеша девчонка
E Am
Девчонке 16 лет
 
 
Hm G
(1) Ветер шумит негромко
A D F#
Листва шелестит в отве-e-ет
Hm G
Идет не спеша девчонка
F# G Hm
Девчонке шестнадцать лет
 
 
Am(V) Em(VII)
1||------5-------------------5--------|-------7-----------------7----------||
2||----5---5---------------5---5------|-----8---8--------------8-8---------||
3||--5-------5-----------5-------5----|---9-------9-----------9---9--------||
4--------------------------------------||
5-------------|-7--------------------7-------------||
6||-5------------------5---------------------------------------||
Ты подойди побли
 
Am Em
Ты подойди поближе, присядь со мною рядом,
Dm Dm G
Я не могу тебя так долго ждать.
Как быстро ночь промчалась, и губ слиянье нежных
Мне больше никогда не испытать.
Ты подойди поближе, почувствуй что я рядом,
Пойми, что никуда я не уйду.