Аккорды к песням для гитары

«TequilaJazzz» аккорды

C Am
тридцать лет тишины
C Am
ни любви, ни войны,
C Am F Fm
только звуки и запахи луны.
я под этой луной
стану розы иглой,
 
 
G|-------------------------------------------------------------|
D|-----0-x-x--0--------0---x-0---------0-x-x--0--------0---x-0-|
A|-2---2-x-x--0--0-0---0---x-0-2-------2-x-x--0--0-0---0---x-0-|
E|-0---0-x-x--2--2-2---2---x---0-------0-x-x--2--2-2---2---x---|
G|-------------------------------------------------------------|
D|-----0-x-x--0--------0---x-0---------0-x-x--0--------0---x-0-|
A|-2---2-x-x--0--0-0---0---x-0-2-------2-x-x--0--0-0---0---x-0-|
E|-0---0-x
 
Intro : Asus2 Em Asus2 Em несколько раз.
Asus2 Em Asus2 Em Asus2
Когда задумаешь уйти, повремени-ка пять минут.
Em Asus2 Em Asus2
Зайди к кому-нибудь из нас, и мы нальем тебе глотнуть.
Em Asus2 Em Asus2
Потише сделав звук, закурим табака,
Em Asus2 Em
можно играть с открытыми струнами или в 3-ей и в 5-ой позиции соответственно.
Вся песня состоит из 2 аккордов:
G5|D5
-=куплет=-
Когда задумаешь уйти, повремени-ка 5 минут
Зайди к кому-нибудь из нас
И мы нальем тебе глотнуть
Потише сделав звук, закурим табака
 
Играем в духе босса-новы
Рифф 1: 5-0 4-4 3-4
C#m7 A Рифф1
C#m7
Так тому и быть -
A
Как цветная зажигалка
C#m7 A
 
 
Bm7 F#m7 Riff1:5-4 5-5 5-4 6-5 6-2 6-5
Триста шестьдесят и шесть...
Bm7 F#m7 Riff1:5-4 5-5 5-4 6-5 6-2 6-5
То ли приз, а то ли месть,
Bm7 F#m7
То ли кубок, то ли невод -
Gm7
Дней не счесть:
 
 
D Am7
Ищи меня бродящим под дождем
Am7
Среди седых дворов
D Am7
Ищи меня в экранных новостях
D Am7
И в цифрах номеров
0 2
0 0
0 2
Cmai=2 H7=1
3 2
0 0
Cmai
Агенты лета все наглей –
 
Куплет:
D C
Бросай книгу в огонь,
Огонь целует ладонь.
Я раздуваю угли,
Теперь попробуй-ка, тронь.
D C
Там среди этих страниц
 
INTRO 4.5X
1:-----------------------------------------------------|
2:|0s2-2-2-2---2-2---3---3---3-2---0---0-0-0---0-0---0-0---0-0---0-|
3:-----------------------------------------------------|
4:-----------------------------------------------------|
VERSE part1 x2
1:-----------------------------------------------------|
2:|0---0-0-0---0-0---0-0---0-0---0-2---2-2-2---2-2---2-2---2-2---2-|
C# F
Возьми в ладонь пепел, возьми в ладонь лед.
C# F
Это может быть случай, а может быть дом,
F C# B H B
Но вот твоя боль, и пускай она станет крылом,
C# F
Лебединная сталь в облаках еще ждет.
 
 
|--2--|
|--1--|
|--2--|
|--1--|=D0
|--x--|
|--x--|
D0(VI) – играется так же, только с 4ого лада
G(III) Hm
 
Bm
Asus Bm
И октябрю благодаря,
Asus
И ветру, солнцу, и дождям,
И дней неточным номерам
Без календаря
И утром мутная заря
 
G
Навык:
Em
В молоко – ложка меда
G
И – набок,
Em
Напоследок –
 
Fmaj7
И вот тогда бы взять –
И изломать карандаш
C
Об отутюженный день,
И утро, вечер, и пляж
Fmaj7
На месте сада камней –
 
Am
Полковые трубы оттрубили вечер
A7 Dm
Празднуя багровый закат
Расскажи мне мама
F
Что это за птицы
H7(II) E (6:|-0-2-4-|)
 
Intro:
Db-Bb
C (целый такт)
все это 8 раз
A-Bb C Db-Bb C
Полковые трубы оттрубили вечер,
Db-Bb C C-Bb G
Празднуя багровый закат
 
C Dm7
Волнам не стоит молчать,
Если знают, где ветра искать -
Он уходит с ключами в руке,
Напевая на чужом языке.
На песке не осталось
Ничего, что казалось,
Будто в чашке плескалась
 
Я играю эту песню, придерживая мизинцем первую (тонкую) струну (ну или подкладывая под нее что-нибудь, чтобы она не звучала)-
так как-то жестче получается. Какой бой - лучше смотреть по темпу песни, как Tezzz играть все равно вряд ли у большинства народа получится.
А левой рукой я временами слегка отпускаю струны, так чтобы аккорды звучали отрывками, получаются своеобразные ударения что ли :).
Да и рука отдыхает - все время барре держать напряжно.
Всем, кто видел, как я и
 
 
INTRO & VERSE
1:|------------------------------------------------|
2:|------------------------------------------------|
3:|------------------------------------------------|
4:|------------------------------------------------|
5:|9-9-9-9---9---7-9-109-7-9-9-9-9---9---7-7-9-9-7-|
6:|7-7-7-7---7---7-7-7-7-7-6-6-6-6---6---6-6-6-6-6-|
1:|------------------------------------------------|
 
INTRO & VERSE
1:-------------------------------------|
2:-------------------------------------|
3:-------------------------------------|
4:-------------------------------------|
5:|9-9-9-9---9---7-9-109-7-9-9-9-9---9---7-7-9-9-7-|
6:|7-7-7-7---7---7-7-7-7-7-6-6-6-6---6---6-6-6-6-6-|
1:-------------------------------------|
 
C
Как темна вода
Em
На глупейшей из планет...
Спят чужие города,
Бредит город-секонд-хенд
Там, где ангел пролетел
Высоко, не надо мною,
 
Вступление: D5 F#5 > 4 раза
F#5 D5
Яблоко проспорило ножу.
Подними мне веки, я на это дело погляжу,
Расскажи об этом своему пажу,
Белому калению, миллениуму-миражу.
D5 F#5
Но, бросая в воду пару орхидей,
 
|--0--|
|--1--|
|--1--| = C+5*
|--2--|
|--3--|
|--0--|
С С+5*
Писать стихи - что лодку тащить на берег
 
D7+ C7+
Ищи меня бродящим под дождем
Среди седых дворов
Ищи меня в экранных новостях
И в цифрах номеров
Ищи меня, когда пройдет полдня,
Как завтрак был готов
D7+ C7+
 
реабилитационный центр для наркозависимых для женщин в стационаре