Аккорды к песням для гитары

«Ю-Питер» аккорды

Dm
Я шепнул себе только ура,
Gm
Я промолвил всего лишь вперед,
F C
И когда наступила пора,
E7 Am
Я сказал досвидания народ.
 
 
Am
Алчи-алчи, что ж ты, мальчик,
E7 Am
Где так долго пропадал?
Видишь, мальчик, мама плачет.
Где ж ты, милый, пропадал?
Dm
Отчего ты смотришь вправо?
 
 
{intro:} A Dm A F D/H E F E A F
A7
не поднимайте бровь -
D7
над мысом катастроф
A7 F
ползет шизоконечная звезда
D/H
 
 
Am Dm
e----3-5-3-2-------------3-5-3-2----------
B--0---------0---------0---------0--------
G7 C
e----3-5-3-2-2--3--------3-2-3-2----0-0---
B--0-----------------------------3---3----
G Am
Светла, как печаль,
 
Интро:
Аккорды играются на аккустике резким с
приглушением ритмом. Табы (желательно) на
электрогитаре чистым тоном с реверберацией
Am G
g--9-9-7-7-9-9-7-9--9-7-7--12-12-10-10-
d--------------------------------------
Am G
 
I Amadd11 I D7sus I E7 III
e|---|---|---| e|---|---|-*-| e|---|---|---|
H|-*-|---|---| H|-*-|---|---| H|---|---|-*-|
G|---|-*-|---| G|---|---|---| G|-*-|---|---|
D|---|---|---| D|---|---|---| D|---|-*-|---|
A|---|---|---| X|---|---|---| A|---|-*-|---|
E|---|---|---| X|---|---|---| E|---|---|---|
Intro:
 
Dm
Бибигон с Луны срывается
B
Бибигон в огонь бросается
Gm
С троглодитами сражается
C
Саблей машет на скаку
 
 
Dm Gm Dm B Dm Gm B A
e|---1-0------1-0-3---1-0----------------|
H|-------1----------1-----1--------------|
G|---------3----------------3--2-0-------|
D-----------------------3-2--|
Dm C B
Бибигон с Луны срывается
B A Gm
 
intro: A D A
A D E
A D
у куклы брунгильды дурная хозяйка
H E
девчонка злая как черт
зовет ее машей кормит манной кашей
H E9+
 
 
Cm G
где нет параллелей и нет полюсов
D# G# Bb
плывет оскаленный труп
Cm G
он ищет в туманах подводных лесов
F D G
эллипс любимых губ
 
 
A|-------------0-0-0----------------------0-0-0-------|
E|-0-3-0-3-0-3-------3-3-2-2--0-3-0-3-0-3-------3--2--|
В.С.О.С.
Это В.С.О.С.
Em A
Марк Марли был не дурак,
Em A
Марк Марли был весельчак,
 
Intro:
Em Am
e|------------------------------------0--0-0---------------0--0-0-------
H|-0--0-0--------------0--0-0----------------3-1-----1-3----------3-1---
G|--------2-0-----0-2---------2-0----------------2-2------------------2-
D|------------2-2-----------------2-------------------------------------
A|----------------------------------------------------------------------
E|-----------------------------------
 
|: D5 E7/D Eb7/D Dm :|
II D5 V II E7/D IV I Eb7/D III
D5 E7/D e|---|---|---|-*-| e|---|---|-*-| e|---|---|-*-|
Граф Наф-Наф собрал свиней H|---|-*-|---|---| H|---|-*-|---| H|---|-*-|---|
Eb7/D Dm G|-*-|---|---|---| G|---|---|-*-| G|---|---|-*-|
и толкнул им такую речь: D|---|---|---|---| D|---|---|---| D|---|---|---|
"Вот мой соломенный меч, X|---|---|---|---| X|--
 
D A D C#7 F#m
1:|5424242-4242020-2424542-4+----------|
2:-------------2+9-6-3-0---|
3:-------------4+-------1--|
4:-------------3+--------34|
1:------------------------------------------------------------|
2:|-----02320---02320---02320---02320----020------030-------0-------------|
3:|---22-----211-----122-----211-----1002---20---2---2----02-20-----------| A
 
Dbm A H
Как-нибудь когда-нибудь
Зачем-нибудь спою я песню
Про любовь которая во мне
Где-нибудь за синим морем
Я найду такую песню
Dbm A H E Ab
Про любовь которая во мне - спит во мне
 
 
{intro:} G D D D7 G C G A A7 D
D7
G
о город гамбург
D
морская и пивная пена
D7
где активисты
 
 
Cm(III) G7(III)
Два строгих брата, два крутых бугра
Fm(III) G(III) Cm(III)
Поклонники порядка сильного
Cm(III) G7(III)
Весь день стоят с прутами у ковра
Fm(III) G(III) Cm(III)
И выбивают пыль из пыльного.
 
 
Em C
Песню звонкую пропела
Am H7
И на изгородь взлетела
Em C
Птица в белых кружевах
Am H7
И в шиншилловых мехах.
 
 
Cm G#
Песню звонкую пропела
Fm B
И на изгородь взлетела
Cm G#
Птица в белых кружевах
Fm B
И в шиншилловых мехах.
 
Am C
Нас выращивали денно,
Dm E7
Мы гороховые зерна.
Нас теперь собрали вместе,
Можно брать и можно есть.
Dm Am
Но знайте и запоминайте,
 
 
H7 Em
Когда умолкнут все песни,
Am H7
Которых я не знаю,
Em/A Am
В терпком воздухе крикнет
G H7 Em H7
Последний мой бумажный пароход.
 
 
Вступление (*/ - это пауза-восьмушка):
Gm
e||----6--6--6--6--3--3--3--|--3--------------------|
H||-------------------------|-----3--3--3--3--------|
G||-*/----------------------|-----------------------|
D||-------------------------|-----------------------|
A||-------------------------|-----------------------|
E||-------------------------|-----------------------|
 
Am
Я шепнул себе только Ура
Dm
Я промолвил всего лишь Вперед
C E
И когда наступила пора
Am
Я сказал До свиданья народ
 
 
{intro:} Cadd9 E7 Am Am6 Dm Dm/5- Fm Fm7 C D G (аккорды куплета)
чешуя твоих губ сквозь хрустальный бокал
этих глаз бирюзовая ересь
этот странный почти треугольный кристалл
озаряемый monte veneris
D# G# G#7
мы зажаты в метро нас не видит никто
Bb G#
 
 
Am
Выпускаю дым
Em
Из больших ресниц
F
Не дыши дитя
G
Будешь золотым
 
 
Am C
Пьяный гений выпил яду,
Dm E
Распахнул окно.
Am C
Вечер, томная прохлада.
Dm E
Погрузился в сон.
 
 
C G
С неба звездочка скатилась,
G7 C
И сказала чуть дыша:
С G
Я влюбилась в Самуила.
Gm C
В Самуила Маршака...
 
 
e|-88-8-8-8--88-8-8-8--88-8-8-8|------------|--88-8-8-8--88-8-8-8-|
H|8--7-6-5--8--7-6-5--8--7-6-5-|------------|-8--7-6-5--8--7-6-5--|
G|-----------------------------|--7654-7654-|---------------------|
 
e|------------|---88-8-8-8--88-8-8-8|----54-----75----15/1715-|
H|------------|--8--7-6-5--8--7-6-5-|----------------------------|
G|--7654-7654-|---------------------|-----------------765--------|
D|------------|---------------------|-987----
 
Вступление:
Am | Dm | E | Am > 2 раза
Am Dm E Am
Огоньки, полустаночки, темнота за окном
Am Dm G C
И чаек в подстаканничке вот наш спальный вагон
Am Dm G C
А колеса стучат, стучат , лязгают буфера
 
 
{intro:} Cm F Cm F Cm F
Bb G G7
Cm F Cm F
Cm Cm7 F7
кони-йото, старый шаман
Fm6/D Fm6/C Bb (Bb6)
внешне выглядит очень странно.
D# D#7 G# (G#add9)
 
 
Альбом - Овалы
Песня - КОНЬ
(В. Бутусов)
Перебор: бас-3-2-1-3-2
C
Трезвый конь,
Трезвый конь,
Трезвый конь,
 
 
Вступление:
E |:-0--0--0--:|
H |:---6--6---:|
G |:--5--5--5-:|
повторять много раз........
Am G
Уронила кошка на пол чашку белую фарфор,
Dm E Am
 
1|-0--1-0--1-0--| [A]
2|--1----1----1-|
Am G Dm Am
1|---8----7----5--------8--|
2|-1----1----1----1--------|
3|-------------------------| [B]
4|-------------0-----------|
5|---0------------------0--|
 
{intro:} Em C#m G
E
куклы мадам манделип
F# H G
спят не смыкая глаз
куклы мадам манделип
нежно любят нас
и когда ребенок смеется
 
 
{intro:} C Csus
C F
мама, научи, как мне быть вампиром,
я хочу владеть потусторонним миром,
F
в голубые вены хочу вонзать я зубы,
D G
нежить, резать, насиловать трупы.
 
 
{intro:} Bm->Hm
D6 H7 Em
A Bb D# D
D6 H7 Em Em7
на мауна-лоа в жерле вулкана влажная сирень,
A Bb D# D D6
в розовой пене, в ласковом пенье там пробуждается день.
D H7 Em Em7
 
 
Am
Моя звезда всегда со мной
Am
Моя звезда горит внутри
Dm E
И говорит мне подожди
Dm E
Постой чуть-чуть еще немного
 
 
Em(7)
Моя звезда всегда со мной
Em(7)
Моя звезда горит внутри
Am(5) Em(7)
И говорит мне подожди
Am(5) Em(7)
Постой чуть-чуть еще немного
 
 
Dm(V)
Моя звезда всегда со мной,
Моя звезда горит внутри
Gm(III) A(V)
И говорит мне подожди,
Gm(III) A(V)
Постой чуть-чуть еще не много,
Gm(III) A(V) Dm(V)
 
 
{intro:} Em
Em
Моя звезда всегда со мной
Моя звезда горит внутри и
Am H
Говорит мне: Подожди,
Am H
Постой чуть-чуть еще немного,
 
 
Am
Мы будем жить с тобой
E7
В маленькой хижине
Dm E7 Am
На берегу очень дикой реки.
Никто и никогда, поверь,
Не будет обиженным
 
 
{intro:} E H E H E H E
E E7 A
на лианах чуть колышутся колибри
C#m C#7 F#m H7
и раскатисто гудит индейский гонг
A
в этих джунглях очень странно
E C#7
 
 
F Bb
На лианах чуть колышатся колибри
D Gm C
И раскатисто гудит индейский гонг
Bb D
В этих джунглях очень странно целовать тебя ?Китана?
G C F
Ожидая нападенья анаконд
 
 
проигрыш:
e /---5-5-5-5-8-6----5-5-5--0--3--1----5-5-5-5-8-6--- 5^0---
Hm Em(II)
Горевала в тоске Настасья,
Hm Em(II)
Обливала себя слезами,
Hm Em(II)
Посрывала все покрывала –
 
{intro:} Dm
Dm
...Би би би би би би я богатий
Би би я богатая жина
Би би би би платье паласатий
Буй буй буй бутилочка вина...
Уронило солнце в реку рублик
Много там разбросано монет
 
 
Am F
Я шел к себе домой, я шел по мокрым лужам,
Dm G
По скользкой мостовой, ногами снег куртюжил
Am F Dm G
А мокрый снег падал, а я шел домой,
Am F Dm G
По зимнему саду, по пустой мостовой.
 
e||-3-|---6-5-3---3-|---6-5-3---5-|
H||---|-6-------6---|-6-------6---|
G||-------|
D||-------|
A||-------|
E||-------|
e||---8-6-5---5-|---8-6-5-----|
H||-8-------8---|-8-------6-8-|
 
intro:
1|-8-7-5-3-2---2-3-2-3-5---8-7-5-3-2---2-3-0-|
solo:
1|-5---0-8-7-5-3-5---0-8-7-5-3-7-|-0-10-8-7-5-7---0-10-8-7-3-5-|-0-8-7-5-3-5---0-8-7-5-3-7-7-7-7-7-|
Accords:
Dm, B, C, Gm
Dm, Gm, Dm, Gm
C, F, C, F, Gm
 
1:|10-9-7-5-7-5-3-2| A
1:|5-5-2-5-7-5--2-2-2-3-0-0------0-0-0-2-| B
2:|----------------3-------3-2-3----3----|
D [A]
Песню эту как запою
так чтоб слышно было на краю
G F# G F#
деревни - нашей круглой Земли.
 
F
D
Песню эту как запою
D
так чтоб слышно было на краю
G F# G F#
деревни - нашей круглой Земли.
D
 
 
D
Мчится птица-паровоз.
A E
Над землею крылья хлопают.
И не слышен стук колес,
Сердце громко бьется и поет.
G
И пыхтит: "чух-чух",
 
 
Hm E A D
Звук пилы, очень ржавой пилы
G A Gm E
Стук в дверь - за тобой пришли
Hm E A D
Крюк в стене, чей-то рваный тулуп
G A Gm E
Эту вахту, мой друг - я посвящаю тебе...
 
 
Em A D G
звук пилы очень ржавой пилы
C D B A
стук в дверь за тобой пришли
Em A D G
крюк в стене чей-то рваный тулуп
C D B A
эту вахту мой друг я посвещаю тебе
 
A D A
кто-то там кричит
A D H
кто-то в дверь стучит
H E A
и внезапно падает картина
A D A
в щелку тонкий свет
 
 
H5
Том ждет целую ночь
В черном городе белую ночь
Там где в небе видна
Полная как Луна, целуя Месяц
Резво скачет Звезда
Целый месяц светит Звезда
Там где за каждым мостом
 
 
Intro: Am H Dm Am - 2 раза
Am H
Граф Наф-Наф собрал свиней
Dm Am
И толкнул им такую речь
Am G7
Вот мой соломенный меч
Dm Am
 
 
Вступление:
C#m(IX) D7(VI) F#m(V) C#m(IV)
C#m D7
Граф Наф-Наф собрал свиней,
F#m C#m
И толкнул им такую речь:
Вот мой соломенный меч,
Я объявляю войну
 
 
{intro:} A
A
Когда легкий стук по крыше
Вот так: тук-тук
В окно кто-то мирно дышит
Вот так: пух-пух
Ко мне мой странный друг приходит
Вот так: вдруг-вдруг
 
 
Am G(3)
Когда легкий стук по крыше
Am G(3)
Вот так: тук, тук.
В окно кто-то мирно дышит
Вот так: пух, пух.
Ко мне мой странный друг приходит
Вот так: вдруг, вдруг.
 
 
Am
Ударная любовь
Dm
Стучит по проводам
G C E
И проникает в нас
Am
Удавом телеграмм
 
 
{intro:} G G# A G G# A
D H E7 Bb A D
G G# A
когда в серебряной пыли
волны отступают от берега
D H E7
не делай напрасных усилий
Bb A D
 
 
Вступление (сыграть дважды):
C
e|---------------3----| \
H|-5-5-3-5---3h5---3--| \ 2
G|-5-5-5-5------------| / раза
D|-5-5-5-5------------| /
G
e|--------------------| \
 
Am G
Уронила кошка на пол чашку белую фарфор,
Dm E Am
Уронила и разбила. Кошку выгнали во двор.
Положили чашку на бок, чашка бредит, кошка спит,
Потому, что у фарфора битый бок во сне болит.
Кошка спит, и кошка видит, как из чашки пьют компот.
Только вот из чашки льется все за ворот, а не в рот.
 
 
Em EmBb
Em
Уроды идут их движенья стесняют одежды
Спокойно идут, ведь никто не поверит в беду
Am
Упрямо идут, но смотри как бледнеет надежда
B G
Роняет цветы неужели уроды идут
 
 
Hm G Em F#m
Где бы ты ни был, тебя я узнаю
И в новое небо себя провожаю.
G Hm
Сердце железное вход запускаю
E F#m
И вижу на небе невидимую.
Мне бы на миг от земли оторваться,