Аккорды к песням для гитары
Транспонировать аккорды:   понизить тональность   повысить тональность

Аккорды песни «Its My Life»

Tuning E

Intro
Riff A
Gtr 1

E||--0-----0------0-----0-------0-0-------1-----1------1-----1-------1--0-|
B||--1-----1------1-----1-------1-1-------1-----1------1-----1-------1--1-|
G||--2-2-2-2-2-2--2-2-2-2-2-2---2-2-2-2---2-2-2-2-2-2--2-2-2-2-2-2---2--2-|
D||--2-----2------2-----2-------2-2-------2-----2------2-----2-------2--2-|
A||-----------------------------------------------------------------------|
E||-----------------------------------------------------------------------|

Gtr 1
E|---------------------------------------0-----0--------0-----0--0—-0--0-|
B|--0-----0------0-----0-------0-0-------0-----0--------0-----0--0--1--0-|
G|--0-----0------0-----0-------0-0-------0-0-0-0-0-0-0--0-0-0-0--0—-2--0-|
D|--2-2-2-2-2-2--2-2-2-2-2-2---2-2-2-2---2-----2--------2-----2--2--2--2-|
A|--2-----2------2-----2-------2-2---------------------------------------|
E|-----------------------------------------------------------------------|

Gtr 2
E|---------------------------------------------------------------------------|
B|---------------------------------------------------------------------------|
G|---------------------------------------------------------------------------|
D|---------------------------------------------------------------------2-(2)-|
A|---------------------------------------------------------------------0—(0)-|
E|---------------------------------------------------------------------------|

Gtr 1
E|--0-----0------0-----0-------0-0-------1-----1------1-----1-------1--0-|
B|--1-----1------1-----1-------1-1-------1-----1------1-----1-------1--1-|
G|--2-2-2-2-2-2--2-2-2-2-2-2---2-2-2-2---2-2-2-2-2-2--2-2-2-2-2-2---2--2-|
D|--2-----2------2-----2-------2-2-------2-----2------2-----2-------2--2-|
A|-----------------------------------------------------------------------|
E|-----------------------------------------------------------------------|

Gtr 2
E|------------------------------------------|
B|------------------------------------------|
G|------------------------------------------|
D|---------------------------------------10-|
A|----------------------------------------8-|
E|------------------------------------------|

Gtr 1
E|---------------------------------------0-----0--------0-----0--0—-0--0-|
B|--0-----0------0-----0-------0-0-------0-----0--------0-----0--0--1--0-|
G|--0-----0------0-----0-------0-0-------0-0-0-0-0-0-0--0-0-0-0--0—-2--0-|
D|--2-2-2-2-2-2--2-2-2-2-2-2---2-2-2-2---2-----2--------2-----2--2--2--2-|
A|--2-----2------2-----2-------2-2---------------------------------------|
E|-----------------------------------------------------------------------|

Gtr 2
E|---------------------------------------------------------------------|
B|---------------------------------------------------------------------|
G|---------------------------------------------------------------------|
D|---------------------------------------------------------------------|
A|--5-(5)⁄------------------------------2--------------------------2/⁄-|
E|--3-(3)⁄------------------------------0--------------------------0/⁄-|

Riff A (both guitars play the part of guitar1, Riff A)

Riff B

Both                                         x2

E||---------------------------------------------|
B||*------------------------------------------*-|
G||---------------------------------------------|
D||---2--2--------------------------------------|
A||*--0--0--x-x-x-x-x-x-x-x-x-x-x-x-x-x-x-----*-|
E||---------------------------------------------|

Riff C
Gtr 1 (clean electric)                                             x6

E||---0----0--------0----0---------0-----0-----0-----0----------------|
B||*--1----1--------1----1---------1-----1-----1-----1--------------*-|
G||---2--2-2-2-2-2--2--2-2-2-2-2---2-2-2-2-2-2-2-2-2-2-2-2------------|
D||---2----2--------2----2---------2-----2-----2-----2----------------|
A||*----------------------------------------------------------------*-|
E||-------------------------------------------------------------------|
                                               {          }
                                       last time - without this part

?horus

Riff A (both guitars play the part of guitar1, Riff A)

Riff B

Riff C

?horus

Riff A (both guitars play the part of guitar1, Riff A) 

Используемые аккорды

Видео Бони Нем «Its My Life»