Аккорды к песням для гитары
Транспонировать аккорды:   понизить тональность   повысить тональность

Аккорды песни «Livin La Vida Loca»

гитару строим в ре (D A F C G D)

intro and main riff:

D|------------------------------------|
A|------------------------------------|
F|-7-7--------------7-7---------------|
C|-7-7-----5-88-7---7-7-------5-------|
G|-5-5---8----------5-5---8-7---8-7-5-|
D|------------------------------------|

Куплет (играется под основной рифф)

sheґs into suprestitons black cats and voodoo dolls
i feel a premonition that girls gonna make me fall

bridge:

        G5                                    A5
sheґll make you take your clothes off and go dancing in the rain
        B5
sheґll make you live her crazy
                C5
life but shell take away your pain
         A5
like a bullett to your brain

chorus:

D5                       C5             D5
upside inside out sheґs living la vida loca
  D5                           C5            D5
sheґll push and pull you down livin la vida loca
     D5                          C5             D5
her lips are devil red and her skins the color mocco
  D5                   C5            D5
she will wear you out livin la vida loca

woke up in New York city in a funky cheap hotel
she took my and and took my money
she most have slipped me a sleeping pill

Соло:

D|-------------------------------------------------------------|
A|-------------------------------------------------------------|
F|---------------------5-5-5-5-7-------------------------------|
C|-------3-5-7-7-7-5-7-----------7-5-3-3-3-3-5-------3-5-2-----|
G|-5-5-5---------------------------------------5-5-5-------3-5-|
D|-------------------------------------------------------------|

D|-------------------------8-8-8-10----|
A|-------6-8-10-10-10-8-10----------10-|
F|-7-7-7-------------------------------|
C|-------------------------------------|
G|-------------------------------------|
D|-------------------------------------|

D|-----------------------------|
A|-8-6-6-6-6-8-------6-8-5-----|
F|-------------7-7-7-------5-7-|
C|-----------------------------|
G|-----------------------------|
D|-----------------------------|

bridge

Chorus 

Используемые аккорды

Видео Бони Нем «Livin La Vida Loca»