Аккорды к песням для гитары

«Люмен» аккорды

(в оригинале ниже приблизительно на четверть тона)
Вступление:
A||--------6----8----9--8--6--|| \
E||--8--8-----8----8----------|| / основной рифф, много раз
C5 Eb5 F5 Gb5 F5 Eb5 C5 C5 Eb5 F5 Gb5 F5 Eb5
A||-------6--8--9--8--6-----|-------6--8--9--8--6----|| \
E||--8-------------------8--|----8-------------------|| / 4 раза, рифф припева
Cm
Вступление:
Am
A|------5-3-5-7------5-3--| \
E|-5-5----------5-5-------| / 4 раза
Am A|-7-7-7-5---|
Новый маленький Иисус
Am D|-------5---|
Замерзает на улице. A|-7-7-7-----|
Вступление: рифф1 > 8 раз
рифф2 > 1 раз
рифф1 > 1 раз
рифф1:
E||----------------------------------------|
H||----------------------------------------|
G||-9---9---9---5---7---7---5---5---7---7--|
D||-7---7---7---7---7---7---7---7---7---7--|
C4
Am F
Как можно обижаться на тех,
E G
Кто не нюхал ни пороха, ни кокаина?
А если и нюхал . остался доволен,
Жги мои сны, стреляй в мою спину.
Как можно верить тому,
У кого есть тридцать монет серебром?
 
Intro: Dm | F | C | B
Dm
Когда у всех wake up –
F
У меня face off,
C B
Нет лица – fucking off
Dm
 
 
Am
Когда у всех make up,
C
У меня - face off.
G G
(Нет лица! Fuck&off!)
Am
Я всю ночь не спал,
 
Бой: V V V^^^V^V^
Em
В моём углу DVD и книги.
A G
Смотреть телеканалы смешно и странно.
Em
В моей квартире обрублена антенна,
A G
 
 
Вступление:
Em | D | C | D > 2 Раза
Em D
Ты открывал ночь —
C D
Все что могли позволить.
Маски срывал прочь,
Душу держал в неволе.
 
 
Вступление: Hm A G D A
 
Hm A G D A
Знаешь, однажды, когда все лягут спать -
Сон не придет к тебе, но не захочешь встать.
Растянув своё тело на светлых простынях,
Ты будешь думать, переживать о днях.
G D A
 
Проигрыш: G Em Hm D
G Em
У бабочки всего лишь день,
Hm D G
Последний день, чтобы влюбиться и умереть.
Em Hm
Но она сидит в закрытой банке,
D G
 
Вступление:
D | Hm | A# | A > 2 раза
D Hm A# A
Беги... Бежим со мной...
Беги... Бежим со мной...
Через город к лесу, через лес и дальше,
Сколько хватит сил...
Разрезая воздух, разбивая стены,
 
 
Вступление:
Em | C | A > 4 раза
Em
Когда больно приливами бьет по глазам,
C
Море, которое есть в каждом из нас,
Em
Ты слышал эти волны и сам,
 
 
Вступление: E5 | E5 | E5 | A5 A#5
E5 | E5 | E5 | A#5 A5
E5 | E5 | E5 | A5 A#5
E5 | E5 | E5 | D5
Em C Em C
Мне приснился маленький дом возле теплого моря
D C
И мы живем в этом доме без спешки, без боли и горя
 
Вступление: G C G C
G C
Радость, грусть, раздражение,
G C
Спокойствие или злость.
У всех своё ощущение
От того, что вдруг началось.
Кружение белых маленьких частиц
 
 
G D Em D/F#
e||-7-----7-----7--------------|-7-----7-----7--------------|
H||----8-----8-----8---7---7---|----8-----8-----8---7---7---|
G||----7-----7-----7-----7---7-|----9-----9-----9-----7---7-|
G D Em Em/F#
e||-7-----7-----7--------------|-7-----7-------10--8----7--5-|
H||----8-----8-----8---7---7---|----8-----8----12--8----7--7-|
G||----7-----7-----7-----7---7-|----9-----9-------
Вступление:
Am Em Dm Am Em Dm
1|-0---0-3-----------|-0---0-8-7-3-0-1-|
2|-1---0-3—-1---3-1--|-1---0---------3-|
3|-2---0-2—-2--------|-2---0---------2-|
4|----------0--------|-----------------|
Am Em Dm
Зря я бросил свою душу у порога -
Вступление:
A | A | D | H > 2 раза
A5
Солнце такой долгий ядерный взрыв
D5
Мы согреты теплом этого света,
H5
И немного солнца мы прячем в ракетах
 
 
Intro:
e--------------------| -----------------|
B--------------------| -----------------|
G--------------------| -----------------|
D--------------------| -----------------|
A--------54----------| --------54----7~-|
E--555555--7777000-4-| --555555--7777---|
Проигрышь:
 
A E
Кто-то мне оставил жвачку на полу,
Кто-то барабанил окурком по столу,
Я давно не знаю, куда свалился мир,
Кто разбил мне вазу и обделал весь сортир?
A E
Мама, это не я,
H E A
 
 
Вступление: D# | Cm | A# | G# | D# | Cm | A# A# | G#
D# Cm A# G#
Снова снег идёт – думал я, но это пепел.
D# Cm A# G#
Слышишь голоса людей, он их всех собой отметил.
D# Cm A# G#
В душах глубоко шрам останется навечно,
D# Cm A# G#
 
 
Вступление:
Dm | F | Am | C > 4 раза
Dm F
В жестокой гонке машины мнутся как консервы.
Am C
Кто будет лучшим? Кто будет первым?
Мы так торопимся, что 60 уже не скорость,
И значит чья-то смерть, теперь всего лишь новость.
 
 
Вступление: Gm | F | Eb | Cm > 2 раза
Gm F Eb
Зачем кричать, когда никто не слышит.
Cm
О чем мы говорим...
Gm F Eb
Мне кажется, что мы давно не живы
Cm
 
Вступление:
E5 A5 E5 A5
E|------------------------------|-------------------------------|
H|------------------------------|-------------------------------|
D|------------------------------|-------------------------------|
G|----------9-10--7-7---5-7--5--|---------9-10--7-7---5-7-5-7-5-|
A|-7---7-7----------------------|-7--7-7------------------------|
E|------------------------------|-------------------------------|
Вступление:
Gm Eb+7 Dm
E||--------5---5/6-----------|---------------------------|
H||--------------------3-----|--------3-----------6--4/3-|
G||-----------------------3--|-----3-----3---------------|
D||-----5-----------5--------|--1--------------7---------|
A||--------------------------|--------------5------------|
E||--3-----------------------|---------------------------|
D G D A
Твоя тетрадь хранит в себе немые тайны,
Hm G Em A
Она хоронит их в решетках ровных клеток...
В ней сладкий вкус полуночных объятий,
В ней горький вкус веселеньких таблеток.
D G Em A
Я украл твой дневник
 
Сначала перебором:бас321*323(*-пауза)
Gm F
У этой сказки нет начала, нет конца
Dm C
У этой песни нет припева, нет куплета
Забылось листопадом последнее лето
Зима стучится в дверь, и ты знешь об этом
Соло:
 
F Dm
У этой сказки нет начала, нет конца.
Am C
У этой песни нет припева, нет куплета.
F Dm
Забылось листопадом последнее лето.
Am
Зима стучится в дверь, и ты знаешь об этом.
 
 
Вступление:
Е5 | D5 > 4 раза
E5 D5 A5
Когда воют телефоны
G5 E5
И слова как будто тонны,
Я как рельсы или струны
Немного звон, немного стоны,
 
 
Проигрыш: F, C, Dm, F, C, A#.
F С Dm
Так много всего было, что память, как тугой мешок.
F C A#
Наполнены слезами, смехом и вином.
F C Dm
И вдруг ты остаешься в гулкой тишине,
F C A#
 
 
Вступление: Cm | B Ab > 2 раза
Cm
Телевизоры и гандоны,
B
Супермаркеты и телефоны.
Ab
Абсолютно без палева,
Gm
 
 
Вступление:
Dm C/9
E||----------------------------|---------------------------||
H||----------------------------|------3---------3----------|| \\
G||5/7----7----7----7--7---7-5-|-----------5-------5---5-5/|| / 3 раза
D||----7---------7-------7-----|---7---------7-------7-----||
Hm-5 B
E||----------------------------|---------------------------||
(Припев)
Em F#m G D B
Моя звезда со мной
Em F#m G B
Моя любовь моя печаль
Em F#m G D B
Моя звезда со мной
Em F#m G B
 
 
E A
Зима в твоих глазах,
Так непревычно.
E A
Но… Но все в порядке,
Все отлично…
C#m F#
Зима пришла сама собой
 
(в оригинале строй гитары на тон ниже)
Вступление и первый куплет (флажолеты):
Em C D G Em C H7 Em
e|-----------------| |--------------|
H|-5-----7---7-----| > 3 раза |-5-----7--5---|
G|----5----5----7--| |----5---------|
Em C D G
Давай из бумаги, деревяшек и клея
Вступительный рифф:
C||---3---3---3---3-|--3--3---3---3-|---3---3---3---3-|--3--3---3---3-|
G||-1---1---1---3---|-----------3---|-1---1---1---3---|-----------0---| > 2 раза
C||-----------------|-0--0--0-------|-----------------|-0--0--0-------|
Проигрыш: Ab5 C5 > 4 раза
Gm7 Ab
Пришло время скинуть бремя
Пустой надежды как лишнюю одежду
Вступление: Fm D# C# G#
Fm D# C# G#
Пыль вагонов, мрак вокзалов,
Мне опять кричат "пора!"
Стрелкам не сбежать из круга,
Продолжается игра.
Новички всегда хватают
Только воздух и песок.
 
 
Am F
Трактор времени сгребает свалку городов.
F Am
В куче, под ковшом мелькает мусор всех цветов:
Am F
Люди,нелюди,машины- как в плохом кино.
F C
Все без связи и причины- переплетено.
 
 
Dm Am F Am
У тебя на коленках свернулся калачик -
Dm Am F Cm#
Спит котёнок, тихо плачет:
G (?) D F
Катёнки не плачьте и люди не плачьте,
G (?) D D
Все остались в живых - ВСЁ БЫЛО ИHАЧЕ!
Вступление: D5 C5 A#5 С5
D5 C5
Зарой меня в песок из дней,
A#5 C5
Но небо - тысячи огней
Прольют свой свет, и ты пролей
хоть каплю слез на кладбище кораблей.
Прогнили ржавые борта,
 
Вступление: Dm C A# Gm
Dm C
Зарой меня в песок из дней,
A# Gm
Но небо - тысячи огней
Прольют свой свет, и ты пролей
хоть каплю слез на кладбище кораблей.
Прогнили ржавые борта,
 
Вступление:
F D/F# | Am Am/C | F D/F# | G > 2 раза
F D/F# | Am Am/C F D/F# | G
Когда попрощаемся с тобой,
Когда я останусь под землей,
Am Dm F Dm
Мой сын посадит на могиле клен.
Пройдут года, он станет старым.
 
 
D A
У меня был друг, он мечтал о звезде
G A
И фотку Гагарина таскал с собой везде.
Ребята во дворе говорил: "Ненормально,
что макет ракеты занимает пол-спальни!"
Hm D
И пока мы бегали к красивым девчонкам,
 
Вступление
G-----4---------4---------4---------4--|
D-2-2---2---4-4---4---5-5---5---4-4---4|
A--------------------------------------|
G-----4---------4---------4---------2--|
D-2-2---2---4-4---4---5-5---5---1-1---1|
A--------------------------------------|
После прикольно играть в две гитары
 
Вступление: Em | G | C | H7 } 2 раза
Am C Fmaj
Полные ботинки одиночества,
Am C Fmaj
Написанное матом в подъезде пророчество.
Am C Fmaj
Ты протянешь руки к солнцу, а оно не улыбнется,
Am C G H7
 
 
Люмен - Кофе
Проигрыш: Em G C H7
+Соло: H|-12-12-12-12--10-10-10-10--12-12-12-12--8-8-8-8-
H|-12-12-12-12--10-10-10-10--8-8-8-8--7-7-7-7-
(Проигрыш и соло 2 раза)
Am C F
Полные ботинки одиночества,
Написанное матом в подъезде пророчество…
 
 
Проигрыш: Am G C H7 > 2 раза
Am C F+7
Полные ботинки одиночества,
Написанное матом в подъезде пророчество.
Ты протянешь руки к солнцу, а оно не улыбнется,
Am C G H7
Среди унылых дней нам только остается...
Em G C H7
 
Вступление:Dm A# C Am
 
Dm A# C Am
Со своей судьбой в рулетку
Поиграть на большой войне.
Убивать и ходить под смертью.
Если можно, то это не мне.
На высоком сидеть престоле.
 
Вступление:
Hm | Hm
Hm | Hm/D | Gm+7 | F#sus4 Esus2 > 2 раза
G | G | Hm | D | G | F#sus4 | Hm | D
G | F#sus4 F# | Hm | Hm
Hm D G
Перегружен мозг, переполнен винт.
F#sus4 Esus2 Hm
 
 
Вступление: Cm | Fm | Eb | B > 2 раза
Cm Fm
Лучик света
Eb B Cm
Пронзил тюрьму душных стен.
Кусочек неба, кусочек лета
В мой одинокий плен
Ворвался и упал
 
Вступление:
G|-----5-----5-----| \
D|-2-3---2-3---2-3-| / 2 раза
F C Dm B
H||-----------------|-----------------|-----------------|/5-3-5-6----6--|
G||-----5-----5-----|-----5-----5-----|-----5-----5-----|----------7----|
D||-2-3---2-3---2-3-|-2-3---2-3---2-3-|-2-3---2-3---2-3-|---------------|
F C Am B
D C
Бьется сердце два последних и привет
F A
И не беда что мне так мало лет
Мне все уже не важно, я капитан отважный
Самых сухопутных кораблей.
Среди асфальтовых морей, люминесценции огней я сам не свой. Вообще ничей.
И я плыву куда-то вдаль, Меня ведет моя печаль, Мне ничего Уже не жаль.
 
G Em C
Денег хватит лишь в один конец
И все равно куда двигать, все равно какой рейс
В выборе смерти ты всегда был спец
Так поднимай свой парус, покидай свой лес
Припев1:
Синими реками далекими морями,
Неси,неси мои слова:
 
F#m D E A
Синими ночами на кухне царство чая,
F#m D E
Давай поговорим о тех кто отчаян!
Голоса уходят в непонятную даль,
Все уже не важно и мне уже не жаль
Мое время!
Мое время…
 
 
C G F
Вороний пир, уставший мир.
F C
Мостов крюки на труп реки.
Не доверяй законам стай,
И никогда не лезь в стада.
Забытый дом несется волк
Ни чуя ног – он одинок.
 
Примечание: Это всё power-аккорды. Не верьте тому, что вылазит при наведении на аккорд.
Проигрыш: B5 G5 A5
B5 G5 A5
Все ломают всё, всё ломает всех
B5 G5 A5
Расхерачить вдребезги - это лучшая из потех
B5 G5 A5
Рассыпайся, разлетайся, оторвись, сгори.
 
 
Проигрыш:
Dm | Am/C C | Bsus2 | Gm
Dm Am/C Bsus2 Gm
Ждать - новостей , перемены лета
Знал - что впереди вопросы без ответов
Dm7 Am/C Bsus2 Gm6
устал гадать что будет там
B C B(+7) C
 
 
Вступление: C#m | H | A | A
C#m A H F#
Дело к осени, и в твоих сырых руках
Листья желтые, строчки стертые.
Небо посылает стае верный знак,
Птицы делают свой первый взмах и улетают
C#m G#m A E
НАВСЕГДА!
 
Вступление (строй гитары опущен на один тон!):
D||--------7-------------(0)------|-------(0)---------(0)----|
A||-----8-----8-------10------10--|-----7-----7-----7-----7--| > 2 раза
F||--9----------9/11------11------|--8-----8-----8-----8-----|
B F A
|-------(0)---------(0)----|--------(0)------(0)-------||
|-----5-----5-----3-----3--|------7--------7--------7--|| > 2 раза
|--5-----5-----4-----4-----|-4/8--------8--------8-----|
вст. Am F C G 3р
Dm F G
Am F C G 3р
Dm F G
Am F
Перемен, ты ходил, искал
C G
Столько стен, и сколько ложных троп
 
 
Вступление: Cm# | F | Cm# | F > 2 раза
Cm# | F | A | G# > 2 раза
Cm# F
Чем больше мы сожжем мостов,
Cm# F
Тем легче выбирать дорогу.
A E
Но прежде чем бросаться в омут,
 
Вступление:
Gm | B/F | Cm6 | D# D#/9 > 2 раза
Gm B/F
Я хожу по комнате туда-сюда, туда-сюда.
Cm7 D#
В голове уже туман, в сердце снова холода.
Измотать себя и рухнуть в темноту, до утра
Колыбельная дождя за окном поет «Пора!»
 
 
Cm Cm/Ab Cm/G Cm/Eb
У насекомых, размазанных по стеклам фар
Нет выбора, а у тебя есть этот дар
Или проклятие, как хочешь назови
То что кипит и дышит у тебя в груди
Ты выбираешь свет, хоть знаешь, что в конце
Он обернётся не теплом, а кровью на лице
Последняя черта - ты поднимаешь флаг
 
 
Вступление:
Hm A G/9: 32023x
E|------------------------------------|
H|---3---3-----3---3----3---3---3---3-| > 2 раза
G|-4---4---4p6---6----2---2---2---2---|
Hm A G/9
E|------------------------------------|
H|---3---3-----3---3----3---3-------3-| \
Вступление: Cm | Gm | Ab | Eb > 2 раза
Cm
За ливнями придут снега.
Gm
Все в норы до апрельских дней.
Ab
Но нам плевать на зиму и себя,
Eb
 
Вступление
Небо во мне... Небо во мне... Небо во мне уже давно в огне. \
} Идут хлопки
Небо во мне... Небо во мне... Небо во мне уже давно в огне. /
F#m E B A
Небо во мне... Небо во мне... Небо во мне уже давно в огне.
F#m E B A
Небо во мне... Небо во мне... Небо во мне уже давно
 
 
Вступление: F E Am G > 3 раза
F
Am Dm E
Никто не знает, о том как нас швыряло
Dm E F E
Из солнечного города в осенние дожди
Чужого края. Потерянного Рая.
Сады нас так манили, и мы ходили их искать...
 
Вступление: G | D } 4 раза
G
Растратив удачу по мелочам,
D
Оставив душу и сердце врачам,
Я ловлю свиней, что подбросила судьба,
И боюсь людей, что говорят все время "да!"
C D
 
 
Сплошные линии - они пусты
Так много геометрии, так много красоты
Оцифрованные фильмы, оцифрованные песни
Их съедает постепенно оцифровочная плесень
Оцифруй все свои сны и пусть тебе приснится
Как летит двоичный код - нули и единицы
Нули и единицы
Нули и единицы
 
Вступление: Bm A D Em Bm A F#m G
Bm A D Em
Он мне махнул из далека - привет!
Bm A F#m G
Я как обычно всё спешил.
Как-бы узнать, что через день о нём,
Мы будем говорить: "любил","жил".
Нажми на паузу, перемотай.
 
 
Гитара настраивается в drop C (строй рэ с опущенной на тон 6-й струной)
Все аккорды играются квинтами
Вступление: С# Bm E F# С# Bm Ab* A*
С# Bm E F#
Он мне махнул из далека - привет!
С# Bm Ab* A*
Я как обычно всё спешил.
Как-бы узнать, что через день о нём,
 
 
Вступление:
Em | C+7 | G | Hm > 2 раза
Em С G Hm
Опять на улице везде льет дождь
И я как всегда дома замерз.
Сижу на кровати один одинок
И нет никого кто бы мне помог.
Em C G D
 
 
Вступление:
F A Dm Dm > 3 раза
F F A A
F A Dm
Вдыхаю гарь промышленных районов,
Где все как встарь: и лица и законы…
F Am
Где мы с тобой играем в прятки,
 
Вступление: D#5 | B5 | C5 | B5
Cm G#
На сердце осеннее небо
Cm G#
Которое сам себе выбрал
F G#
Чтобы помнить о том, как не просто
F G#
 
 
Hm F#m Hm
В холодной Твери y закрытой двери
Dm Hm
Какие-то твари травились травой,
Hm F#m Hm
И только Творец знает, что я был там,
Dm G
И что это было co мной...
 
 
Fm# Em
В холодной Твери
У закрытой двери
Какие-то твари
Травились травой.
И только творец
Знает что я был там,
И что это было со мной:
 
Вступление: Dm C Dm C
 
Dm
У тебя есть право не вникать,
F C
Быть глухим и довольным.
Право подобрать под ответы вопрос
И молчать когда больно.
 
 
Dm B C
Из неоплаченных счетов за телефон
Я склею маленький кораблик -
Пускай плывет, пускай несет тебе привет.
Dm B
Теперь ты можешь говорить,
C
Что ты с приветом.
 
 
Em G
Я стою в тени и смотрю на машины:
C D
Пыльные монстры, гудящие шины.
Редкие люди проходят во мрак:
Кто гуляет с собакой, а кто просто так.
Из-за дома показалась лунная рожа,
Но мне всё равно: я просто прохожий.
 
 
E
Кто-то запрятал в груди живую птицу
F#m A
Пока она бьется мне не остановиться
E
Все равно журавль иль синица
F#m A
Просто продолжай биться, биться, биться...
 
Вступление: Am G F
 
Am G F Am
Ты хочешь цель, тогда, конечно же, держи
G F Am
Придумай вехи на пути и рубеже,
Они помогут продержаться еще раз, F
Но все равно потом приходит этот час,
 
Вступление:
e|-----------------|
H|-----------------|
G|-----5-------7---| \
D|---7---7---7---7-| / 4 раза
A|-5-------5-------|
E|-----------------|
D5 | C5 | B5 | B5 C5 > 4 раза
Вступление:Dm C A# A
 
Dm C
Как это плавать ночью в море?
A# A
Как это вместе строить дом?
Как на двоих счастье и горе?
Как много лет встречаться за одним столом?
 
Вступление:
Dm C
A||8^10--10----10--10--X--8--8--8--8-|7^8--8----8--8--X--7-7-7-7-|
E||10-----10----10--10--X-10-10-10-10|8-----8----8--8--X--8-8-8-8-|
A# A
A||8---8---8-8--X--8-8-8-8|-7---7---7-7--X--8-8-8-8|
E||6---6---6-6--X--6-6-6-6|-5---5---5-5--X--5-5-5-5|
Затем просто аккордами. Бой: V-V-V*^-^V-V^V
 
Вступление: Gm Gm F C
 
Gm F C Gm F C Gm
Прямо в пропасть посылаю небеса...
Все вопросы, все надежды, ну а там...
Поперек алмазных искр - самолет оставил шрам
Словно небо зачерпнул - разбирайся сам...
Все получат - поделом и по делам!
 
Am
Самый главный человек –
Dm
Тот, кто сможет полюбить,
F
Тот, кто сможет защитить,
C G
Кто захочет рядом быть.
 
 
Вступление:
Gm F C
E||-----------|-----------|----------|------|
H||---3-------|-----------|----------|------|
G||------5--3-|-2---------|----------|------| \
D||-----------|----5-3--5-|----5-5---|------| / 4 раза
A||-----------|-----------|-3--------|------|
E||-----------|-----------|----------|------|
Вступление:
Em Em7/D
E|------------------------|------------------------|
B|-------0-----1--0-----0-|-------0-----1--0-----0-|
G|------------------------|------------------------|
D|-2--2-----2--------2----|-0--0-----0--------0----|
A|------------------------|------------------------|
E|------------------------|------------------------|
Hm G
Синяя птица-птица счастья
Em F#
Тебя знаю недолго, но давай прощаться
Время пришло, пусть ты не хочешь улетать
Я уйду сам, и мне дано так мало знать
Рада ты мне или не рада
Но я ухожу, и просто так надо
 
Em G
Синяя птица птица счастья
Am H7
Тебя знаю недолго но давай прощаться
Время пришло пусть ты нехочешь улетать
Я уйду сам и мне данно так мало знать
Рада ты мне или не рада
Но я ухожу и просто так надо
 
 
Вступление: Em D Em D C Hm C Hm
Em D
Меня уносят моря
C
Моих надежд, что стоят
Hm
И не дают отступить
И не хотят умирать.
 
Вступление:
E|--------12------8-------10------7------7-------|
H|-----10------10------10------10-----10---10----|
G|---9-------9------9--------9------9------------|
Am
Не оставляя за собой следов
F
Пройти сквозь чью то жизнь неясной тенью тохо
(в оригинале строй гитар на тон ниже)
Вступление: F Am > 4 раза
F Dm Am Em F
Время за полночь, и мне осталось три пути.
F Dm Am G F
Не один ли бес, куда ступать, зачем идти?
Опустились руки, поднялись корни.
Монету на удачу. Руку черт не дерни!
intro: Am G F D < 4раза
Am G
Успокой меня,
F D
Я тону в асфальте, я осколок пасмурного дня.
Am G
Облака плывут,
F D
 
 
Вступление: A5 | G5 | C5 | E5
A5 G5 C5 E5
Сид Вишез умер у тебя на глазах,
A5 G5 C5 E5
Джон Леннон умер у тебя на глазах,
Джим Моррисон умер у тебя на глазах,
А ты остался таким же, как и был.
A5 | G5 | C5 | E5 \ 3 раза
 
 
F5
В одном рюкзаке сникерс и Маркс,
«Оборона» и Леннон на поцарапанной R-ке,
C#5 D#5
Но самое главное – искры в глазах
C5 C#5
И этот свет вряд ли быстро померкнет.
Огонь желания лучшего мира,
 
 
H E F#
Взвесь все факты и аргументы,
H E F# D
Продай всё, сожги документы,
Оставь записку, что решил утопиться,
А потом беги -теперь ты вольная птица:
Пока он не проснулся, а она не узнала,
Обрубай хвосты, начинай всё сначала.
 
 
(Давай джаз споем)
A G F E D C# C H
(Ой лап лап лап лап лап лап дааа)
(А как нормально спеть? Я только джаз умею)
(А где фанера? Не, ты мне фанеру дай)
Вступление: H | E | F# | F# > 4 раза
H E F#
Взвесь все факты и аргументы,
 
 
Вступление G C G D
G C G D
Будто снег на голову,
G C
Судьба так часто любит
G D
Шутить над нами
G C G D